ISO-10303-21;
HEADER;
FILE_DESCRIPTION (( 'STEP AP203' ),
    '1' );
FILE_NAME ('952309.step',
    '2021-11-01T12:23:54',
    ( '' ),
    ( '' ),
    'SwSTEP 2.0',
    'SolidWorks 2019',
    '' );
FILE_SCHEMA (( 'CONFIG_CONTROL_DESIGN' ));
ENDSEC;

DATA;
#1 = VERTEX_POINT ( 'NONE', #68 ) ;
#2 = CIRCLE ( 'NONE', #21, 0.9500000000000000666 ) ;
#3 = PRODUCT_DEFINITION ( 'UNKNOWN', '', #163, #140 ) ;
#4 = APPLICATION_CONTEXT ( 'configuration controlled 3d designs of mechanical parts and assemblies' ) ;
#5 = ORIENTED_EDGE ( 'NONE', *, *, #10, .F. ) ;
#6 = EDGE_LOOP ( 'NONE', ( #54 ) ) ;
#7 = CARTESIAN_POINT ( 'NONE',  ( 1.990144363140586328E-14, 1.124819836996386911E-32, 5.700000000000000178 ) ) ;
#8 = LOCAL_TIME ( 13, 23, 54.00000000000000000, #103 ) ;
#9 = FACE_OUTER_BOUND ( 'NONE', #110, .T. ) ;
#10 = EDGE_CURVE ( 'NONE', #102, #102, #100, .T. ) ;
#11 = PERSON_AND_ORGANIZATION_ROLE ( 'creator' ) ;
#12 = CARTESIAN_POINT ( 'NONE',  ( 3.007927642531703984E-14, -3.578272343716901798E-16, 8.615047169429667306 ) ) ;
#13 = AXIS2_PLACEMENT_3D ( 'NONE', #20, #50, #207 ) ;
#14 = DIRECTION ( 'NONE',  ( -3.491481338843133355E-15, 1.224646799147353207E-16, -1.000000000000000000 ) ) ;
#15 = CARTESIAN_POINT ( 'NONE',  ( 0.0000000000000000000, 0.0000000000000000000, 0.0000000000000000000 ) ) ;
#16 = CC_DESIGN_DATE_AND_TIME_ASSIGNMENT ( #28, #98, ( #164 ) ) ;
#17 = DIRECTION ( 'NONE',  ( -3.491481338843133355E-15, 1.224646799147353207E-16, -1.000000000000000000 ) ) ;
#18 = PERSON_AND_ORGANIZATION ( #61, #49 ) ;
#19 = DIRECTION ( 'NONE',  ( 3.491481338843133355E-15, -1.227517819005651059E-16, 1.000000000000000000 ) ) ;
#20 = CARTESIAN_POINT ( 'NONE',  ( -4.071562780247870440E-31, -8.234482691091612953E-33, -1.166141928055368432E-16 ) ) ;
#21 = AXIS2_PLACEMENT_3D ( 'NONE', #215, #27, #167 ) ;
#22 = ADVANCED_FACE ( 'NONE', ( #23 ), #90, .F. ) ;
#23 = FACE_OUTER_BOUND ( 'NONE', #149, .T. ) ;
#24 = FACE_OUTER_BOUND ( 'NONE', #6, .T. ) ;
#25 = APPROVAL_ROLE ( '' ) ;
#26 = PERSON_AND_ORGANIZATION ( #61, #49 ) ;
#27 = DIRECTION ( 'NONE',  ( 3.491481338843133355E-15, -1.227517819005651059E-16, 1.000000000000000000 ) ) ;
#28 = DATE_AND_TIME ( #84, #55 ) ;
#29 = FACE_OUTER_BOUND ( 'NONE', #197, .T. ) ;
#30 = DIRECTION ( 'NONE',  ( -3.491481338843133355E-15, 1.224646799147353207E-16, -1.000000000000000000 ) ) ;
#31 = CARTESIAN_POINT ( 'NONE',  ( 1.990144363140586013E-14, -0.9500000000000007327, 5.699999999999999289 ) ) ;
#32 = VERTEX_POINT ( 'NONE', #64 ) ;
#33 = LOCAL_TIME ( 13, 23, 54.00000000000000000, #203 ) ;
#34 = MANIFOLD_SOLID_BREP ( 'Corps-Déplacer/Copier1[2]', #151 ) ;
#35 = MANIFOLD_SOLID_BREP ( 'Corps-Déplacer/Copier1[1]', #88 ) ;
#36 = LOCAL_TIME ( 13, 23, 54.00000000000000000, #196 ) ;
#37 = EDGE_LOOP ( 'NONE', ( #92 ) ) ;
#38 = ORIENTED_EDGE ( 'NONE', *, *, #83, .T. ) ;
#39 = ADVANCED_FACE ( 'NONE', ( #9, #195 ), #132, .F. ) ;
#40 = PERSON_AND_ORGANIZATION ( #61, #49 ) ;
#41 = ORIENTED_EDGE ( 'NONE', *, *, #127, .T. ) ;
#42 = AXIS2_PLACEMENT_3D ( 'NONE', #204, #19, #99 ) ;
#43 = CC_DESIGN_APPROVAL ( #125, ( #164 ) ) ;
#44 = DIRECTION ( 'NONE',  ( 1.000000000000000000, 0.0000000000000000000, 0.0000000000000000000 ) ) ;
#45 = DIRECTION ( 'NONE',  ( -3.491481338843133355E-15, 1.227517819005651059E-16, -1.000000000000000000 ) ) ;
#46 = SECURITY_CLASSIFICATION_LEVEL ( 'unclassified' ) ;
#47 = DATE_AND_TIME ( #221, #33 ) ;
#48 = DIRECTION ( 'NONE',  ( 0.0000000000000000000, 1.000000000000000000, 0.0000000000000000000 ) ) ;
#49 = ORGANIZATION ( 'UNSPECIFIED', 'UNSPECIFIED', '' ) ;
#50 = DIRECTION ( 'NONE',  ( 3.491481338843133355E-15, -1.227517819005651059E-16, 1.000000000000000000 ) ) ;
#51 = DIRECTION ( 'NONE',  ( 0.0000000000000000000, 1.000000000000000000, 0.0000000000000000000 ) ) ;
#52 = CC_DESIGN_PERSON_AND_ORGANIZATION_ASSIGNMENT ( #18, #184, ( #164 ) ) ;
#53 = AXIS2_PLACEMENT_3D ( 'NONE', #7, #94, #146 ) ;
#54 = ORIENTED_EDGE ( 'NONE', *, *, #127, .F. ) ;
#55 = LOCAL_TIME ( 13, 23, 54.00000000000000000, #66 ) ;
#56 = ORIENTED_EDGE ( 'NONE', *, *, #185, .F. ) ;
#57 = ADVANCED_FACE ( 'NONE', ( #24 ), #213, .F. ) ;
#58 = PERSON_AND_ORGANIZATION_ROLE ( 'design_owner' ) ;
#59 = CARTESIAN_POINT ( 'NONE',  ( -8.551680453529350800E-31, 2.999525725151307090E-32, -2.449298628175645296E-16 ) ) ;
#60 = APPROVAL_DATE_TIME ( #117, #89 ) ;
#61 = PERSON ( 'UNSPECIFIED', 'UNSPECIFIED', 'UNSPECIFIED', ('UNSPECIFIED'), ('UNSPECIFIED'), ('UNSPECIFIED') ) ;
#62 = CARTESIAN_POINT ( 'NONE',  ( 1.990144363140586328E-14, 1.124819836996386911E-32, 5.700000000000000178 ) ) ;
#63 = CALENDAR_DATE ( 2021, 1, 11 ) ;
#64 = CARTESIAN_POINT ( 'NONE',  ( 3.007927642531703984E-14, 1.499999999999994449, 8.615047169429667306 ) ) ;
#65 = PLANE ( 'NONE',  #191 ) ;
#66 = COORDINATED_UNIVERSAL_TIME_OFFSET ( 1, 0, .AHEAD. ) ;
#67 = CARTESIAN_POINT ( 'NONE',  ( 1.326762908760390423E-13, 8.998558695971051224E-33, 38.00000000000000000 ) ) ;
#68 = CARTESIAN_POINT ( 'NONE',  ( 1.326762908760390423E-13, 1.199999999999991962, 38.00000000000000000 ) ) ;
#69 =( NAMED_UNIT ( * ) SI_UNIT ( $, .STERADIAN. ) SOLID_ANGLE_UNIT ( ) );
#70 = CC_DESIGN_PERSON_AND_ORGANIZATION_ASSIGNMENT ( #200, #153, ( #163 ) ) ;
#71 = CIRCLE ( 'NONE', #198, 1.199999999999996403 ) ;
#72 = ADVANCED_FACE ( 'NONE', ( #188, #155 ), #156, .T. ) ;
#73 = EDGE_LOOP ( 'NONE', ( #128 ) ) ;
#74 = EDGE_LOOP ( 'NONE', ( #211 ) ) ;
#75 = EDGE_LOOP ( 'NONE', ( #56 ) ) ;
#76 = ADVANCED_FACE ( 'NONE', ( #169 ), #119, .F. ) ;
#77 = CC_DESIGN_APPROVAL ( #177, ( #163 ) ) ;
#78 = CARTESIAN_POINT ( 'NONE',  ( 1.990144363140586013E-14, 0.0000000000000000000, 5.699999999999999289 ) ) ;
#79 = PERSON_AND_ORGANIZATION ( #61, #49 ) ;
#80 = DATE_AND_TIME ( #63, #212 ) ;
#81 = FACE_OUTER_BOUND ( 'NONE', #75, .T. ) ;
#82 = CC_DESIGN_SECURITY_CLASSIFICATION ( #164, ( #163 ) ) ;
#83 = EDGE_CURVE ( 'NONE', #190, #190, #2, .T. ) ;
#84 = CALENDAR_DATE ( 2021, 1, 11 ) ;
#85 = DIRECTION ( 'NONE',  ( 4.275831445896958607E-31, 1.000000000000000000, 1.224646799147353207E-16 ) ) ;
#86 = PERSON_AND_ORGANIZATION ( #61, #49 ) ;
#87 = DIRECTION ( 'NONE',  ( -4.275831445896958607E-31, -1.000000000000000000, -1.224646799147353207E-16 ) ) ;
#88 = CLOSED_SHELL ( 'NONE', ( #93, #216, #76, #39, #22 ) ) ;
#89 = APPROVAL ( #122, 'UNSPECIFIED' ) ;
#90 = PLANE ( 'NONE',  #53 ) ;
#91 = CIRCLE ( 'NONE', #158, 1.499999999999996669 ) ;
#92 = ORIENTED_EDGE ( 'NONE', *, *, #142, .F. ) ;
#93 = ADVANCED_FACE ( 'NONE', ( #222, #81 ), #133, .T. ) ;
#94 = DIRECTION ( 'NONE',  ( 3.491481338843133355E-15, -1.224646799147353207E-16, 1.000000000000000000 ) ) ;
#95 = EDGE_LOOP ( 'NONE', ( #41 ) ) ;
#96 = APPROVAL_ROLE ( '' ) ;
#97 = DIRECTION ( 'NONE',  ( -4.275831445896958607E-31, -1.000000000000000000, -1.224646799147353207E-16 ) ) ;
#98 = DATE_TIME_ROLE ( 'classification_date' ) ;
#99 = DIRECTION ( 'NONE',  ( -4.285855558155653280E-31, -1.000000000000000000, -1.227517819005651059E-16 ) ) ;
#100 = CIRCLE ( 'NONE', #206, 0.9500000000000000666 ) ;
#101 = APPLICATION_PROTOCOL_DEFINITION ( 'international standard', 'config_control_design', 1994, #4 ) ;
#102 = VERTEX_POINT ( 'NONE', #123 ) ;
#103 = COORDINATED_UNIVERSAL_TIME_OFFSET ( 1, 0, .AHEAD. ) ;
#104 = EDGE_CURVE ( 'NONE', #105, #105, #91, .T. ) ;
#105 = VERTEX_POINT ( 'NONE', #173 ) ;
#106 = CARTESIAN_POINT ( 'NONE',  ( 1.316288464743861212E-13, -4.616918432785521081E-15, 37.69999999999999574 ) ) ;
#107 = CIRCLE ( 'NONE', #129, 1.499999999999994893 ) ;
#108 = CC_DESIGN_PERSON_AND_ORGANIZATION_ASSIGNMENT ( #26, #58, ( #210 ) ) ;
#109 = APPROVAL_PERSON_ORGANIZATION ( #79, #89, #96 ) ;
#110 = EDGE_LOOP ( 'NONE', ( #38 ) ) ;
#111 = CONICAL_SURFACE ( 'NONE', #178, 1.199999999999996403, 0.7853981633974461696 ) ;
#112 = DIRECTION ( 'NONE',  ( 3.491481338843133355E-15, -1.227517819005651059E-16, 1.000000000000000000 ) ) ;
#113 = CC_DESIGN_PERSON_AND_ORGANIZATION_ASSIGNMENT ( #40, #11, ( #3 ) ) ;
#114 = DATE_AND_TIME ( #148, #36 ) ;
#115 = DIRECTION ( 'NONE',  ( 3.491481338843133355E-15, -1.224646799147353207E-16, 1.000000000000000000 ) ) ;
#116 = DIRECTION ( 'NONE',  ( 0.0000000000000000000, 1.000000000000000000, 0.0000000000000000000 ) ) ;
#117 = DATE_AND_TIME ( #166, #8 ) ;
#118 = FACE_OUTER_BOUND ( 'NONE', #73, .T. ) ;
#119 = PLANE ( 'NONE',  #126 ) ;
#120 = CIRCLE ( 'NONE', #13, 0.9499999999999998446 ) ;
#121 = PRODUCT_RELATED_PRODUCT_CATEGORY ( 'detail', '', ( #210 ) ) ;
#122 = APPROVAL_STATUS ( 'not_yet_approved' ) ;
#123 = CARTESIAN_POINT ( 'NONE',  ( 1.990144363140586013E-14, -0.9500000000000007327, 5.699999999999999289 ) ) ;
#124 = APPROVAL_PERSON_ORGANIZATION ( #186, #125, #219 ) ;
#125 = APPROVAL ( #205, 'UNSPECIFIED' ) ;
#126 = AXIS2_PLACEMENT_3D ( 'NONE', #67, #17, #183 ) ;
#127 = EDGE_CURVE ( 'NONE', #139, #139, #120, .T. ) ;
#128 = ORIENTED_EDGE ( 'NONE', *, *, #104, .F. ) ;
#129 = AXIS2_PLACEMENT_3D ( 'NONE', #12, #45, #135 ) ;
#130 = EDGE_LOOP ( 'NONE', ( #162 ) ) ;
#131 = MECHANICAL_CONTEXT ( 'NONE', #161, 'mechanical' ) ;
#132 = TOROIDAL_SURFACE ( 'NONE', #192, 8.949999999999999289, 8.000000000000000000 ) ;
#133 = CYLINDRICAL_SURFACE ( 'NONE', #187, 1.499999999999994893 ) ;
#134 =( LENGTH_UNIT ( ) NAMED_UNIT ( * ) SI_UNIT ( .MILLI., .METRE. ) );
#135 = DIRECTION ( 'NONE',  ( 0.0000000000000000000, 1.000000000000000000, 0.0000000000000000000 ) ) ;
#136 = PERSON_AND_ORGANIZATION_ROLE ( 'design_supplier' ) ;
#137 = CARTESIAN_POINT ( 'NONE',  ( 1.326762908760390423E-13, -4.653657836759941941E-15, 38.00000000000000000 ) ) ;
#138 = CC_DESIGN_APPROVAL ( #89, ( #3 ) ) ;
#139 = VERTEX_POINT ( 'NONE', #157 ) ;
#140 = DESIGN_CONTEXT ( 'detailed design', #4, 'design' ) ;
#141 = AXIS2_PLACEMENT_3D ( 'NONE', #59, #115, #87 ) ;
#142 = EDGE_CURVE ( 'NONE', #1, #1, #71, .T. ) ;
#143 = CARTESIAN_POINT ( 'NONE',  ( 1.990144363140586013E-14, -6.996851568332209604E-16, 5.699999999999999289 ) ) ;
#144 = AXIS2_PLACEMENT_3D ( 'NONE', #15, #170, #44 ) ;
#145 = ADVANCED_BREP_SHAPE_REPRESENTATION ( '952309', ( #35, #34, #144 ), #209 ) ;
#146 = DIRECTION ( 'NONE',  ( -4.275831445896958607E-31, -1.000000000000000000, -1.224646799147353207E-16 ) ) ;
#147 = DIRECTION ( 'NONE',  ( -4.348522919579275296E-31, -1.000000000000000000, -1.227517819005651059E-16 ) ) ;
#148 = CALENDAR_DATE ( 2021, 1, 11 ) ;
#149 = EDGE_LOOP ( 'NONE', ( #193 ) ) ;
#150 = PERSON_AND_ORGANIZATION ( #61, #49 ) ;
#151 = CLOSED_SHELL ( 'NONE', ( #154, #72, #57 ) ) ;
#152 = FACE_BOUND ( 'NONE', #130, .T. ) ;
#153 = PERSON_AND_ORGANIZATION_ROLE ( 'creator' ) ;
#154 = ADVANCED_FACE ( 'NONE', ( #29 ), #65, .T. ) ;
#155 = FACE_OUTER_BOUND ( 'NONE', #160, .T. ) ;
#156 = CYLINDRICAL_SURFACE ( 'NONE', #42, 0.9499999999999999556 ) ;
#157 = CARTESIAN_POINT ( 'NONE',  ( -8.143125560495739129E-31, -0.9499999999999998446, -2.332283856110736863E-16 ) ) ;
#158 = AXIS2_PLACEMENT_3D ( 'NONE', #106, #220, #48 ) ;
#159 = ORIENTED_EDGE ( 'NONE', *, *, #10, .T. ) ;
#160 = EDGE_LOOP ( 'NONE', ( #5 ) ) ;
#161 = APPLICATION_CONTEXT ( 'configuration controlled 3d designs of mechanical parts and assemblies' ) ;
#162 = ORIENTED_EDGE ( 'NONE', *, *, #142, .T. ) ;
#163 = PRODUCT_DEFINITION_FORMATION_WITH_SPECIFIED_SOURCE ( 'ANY', '', #210, .NOT_KNOWN. ) ;
#164 = SECURITY_CLASSIFICATION ( '', '', #46 ) ;
#165 = DIRECTION ( 'NONE',  ( 3.491481338843133355E-15, -1.227517819005651059E-16, 1.000000000000000000 ) ) ;
#166 = CALENDAR_DATE ( 2021, 1, 11 ) ;
#167 = DIRECTION ( 'NONE',  ( 0.0000000000000000000, -1.000000000000000000, 0.0000000000000000000 ) ) ;
#168 = DATE_TIME_ROLE ( 'creation_date' ) ;
#169 = FACE_OUTER_BOUND ( 'NONE', #37, .T. ) ;
#170 = DIRECTION ( 'NONE',  ( 0.0000000000000000000, 0.0000000000000000000, 1.000000000000000000 ) ) ;
#171 = CARTESIAN_POINT ( 'NONE',  ( 1.326762908760390423E-13, -4.653657836759941941E-15, 38.00000000000000000 ) ) ;
#172 = APPROVAL_DATE_TIME ( #47, #125 ) ;
#173 = CARTESIAN_POINT ( 'NONE',  ( 1.316288464743861212E-13, 1.499999999999992228, 37.69999999999999574 ) ) ;
#174 = UNCERTAINTY_MEASURE_WITH_UNIT (LENGTH_MEASURE( 1.000000000000000082E-05 ), #134, 'distance_accuracy_value', 'NONE');
#175 = PRODUCT_DEFINITION_SHAPE ( 'NONE', 'NONE',  #3 ) ;
#176 = ORIENTED_EDGE ( 'NONE', *, *, #185, .T. ) ;
#177 = APPROVAL ( #181, 'UNSPECIFIED' ) ;
#178 = AXIS2_PLACEMENT_3D ( 'NONE', #137, #30, #116 ) ;
#179 = APPROVAL_PERSON_ORGANIZATION ( #86, #177, #25 ) ;
#180 = DIRECTION ( 'NONE',  ( 0.0000000000000000000, -1.000000000000000000, 0.0000000000000000000 ) ) ;
#181 = APPROVAL_STATUS ( 'not_yet_approved' ) ;
#182 = APPLICATION_PROTOCOL_DEFINITION ( 'international standard', 'config_control_design', 1994, #161 ) ;
#183 = DIRECTION ( 'NONE',  ( 4.275831445896958607E-31, 1.000000000000000000, 1.224646799147353207E-16 ) ) ;
#184 = PERSON_AND_ORGANIZATION_ROLE ( 'classification_officer' ) ;
#185 = EDGE_CURVE ( 'NONE', #32, #32, #107, .T. ) ;
#186 = PERSON_AND_ORGANIZATION ( #61, #49 ) ;
#187 = AXIS2_PLACEMENT_3D ( 'NONE', #208, #14, #85 ) ;
#188 = FACE_OUTER_BOUND ( 'NONE', #95, .T. ) ;
#189 = SHAPE_DEFINITION_REPRESENTATION ( #175, #145 ) ;
#190 = VERTEX_POINT ( 'NONE', #31 ) ;
#191 = AXIS2_PLACEMENT_3D ( 'NONE', #62, #199, #97 ) ;
#192 = AXIS2_PLACEMENT_3D ( 'NONE', #78, #112, #147 ) ;
#193 = ORIENTED_EDGE ( 'NONE', *, *, #83, .F. ) ;
#194 = EDGE_LOOP ( 'NONE', ( #176 ) ) ;
#195 = FACE_OUTER_BOUND ( 'NONE', #194, .T. ) ;
#196 = COORDINATED_UNIVERSAL_TIME_OFFSET ( 1, 0, .AHEAD. ) ;
#197 = EDGE_LOOP ( 'NONE', ( #159 ) ) ;
#198 = AXIS2_PLACEMENT_3D ( 'NONE', #171, #218, #51 ) ;
#199 = DIRECTION ( 'NONE',  ( 3.491481338843133355E-15, -1.224646799147353207E-16, 1.000000000000000000 ) ) ;
#200 = PERSON_AND_ORGANIZATION ( #61, #49 ) ;
#201 =( NAMED_UNIT ( * ) PLANE_ANGLE_UNIT ( ) SI_UNIT ( $, .RADIAN. ) );
#202 = CC_DESIGN_DATE_AND_TIME_ASSIGNMENT ( #114, #168, ( #3 ) ) ;
#203 = COORDINATED_UNIVERSAL_TIME_OFFSET ( 1, 0, .AHEAD. ) ;
#204 = CARTESIAN_POINT ( 'NONE',  ( -6.413731847436034514E-31, 0.0000000000000000000, -1.836965810494968570E-16 ) ) ;
#205 = APPROVAL_STATUS ( 'not_yet_approved' ) ;
#206 = AXIS2_PLACEMENT_3D ( 'NONE', #143, #165, #180 ) ;
#207 = DIRECTION ( 'NONE',  ( -4.285855558155651528E-31, -1.000000000000000000, -1.227517819005651059E-16 ) ) ;
#208 = CARTESIAN_POINT ( 'NONE',  ( 0.0000000000000000000, 0.0000000000000000000, 0.0000000000000000000 ) ) ;
#209 =( GEOMETRIC_REPRESENTATION_CONTEXT ( 3 ) GLOBAL_UNCERTAINTY_ASSIGNED_CONTEXT ( ( #174 ) ) GLOBAL_UNIT_ASSIGNED_CONTEXT ( ( #134, #201, #69 ) ) REPRESENTATION_CONTEXT ( 'NONE', 'WORKASPACE' ) );
#210 = PRODUCT ( '952309', '952309', '', ( #131 ) ) ;
#211 = ORIENTED_EDGE ( 'NONE', *, *, #104, .T. ) ;
#212 = LOCAL_TIME ( 13, 23, 54.00000000000000000, #214 ) ;
#213 = PLANE ( 'NONE',  #141 ) ;
#214 = COORDINATED_UNIVERSAL_TIME_OFFSET ( 1, 0, .AHEAD. ) ;
#215 = CARTESIAN_POINT ( 'NONE',  ( 1.990144363140586013E-14, -6.996851568332209604E-16, 5.699999999999999289 ) ) ;
#216 = ADVANCED_FACE ( 'NONE', ( #118, #152 ), #111, .T. ) ;
#217 = APPROVAL_DATE_TIME ( #80, #177 ) ;
#218 = DIRECTION ( 'NONE',  ( -3.491481338843133355E-15, 1.224646799147353207E-16, -1.000000000000000000 ) ) ;
#219 = APPROVAL_ROLE ( '' ) ;
#220 = DIRECTION ( 'NONE',  ( -3.491481338843133355E-15, 1.224646799147353207E-16, -1.000000000000000000 ) ) ;
#221 = CALENDAR_DATE ( 2021, 1, 11 ) ;
#222 = FACE_OUTER_BOUND ( 'NONE', #74, .T. ) ;
#223 = CC_DESIGN_PERSON_AND_ORGANIZATION_ASSIGNMENT ( #150, #136, ( #163 ) ) ;
ENDSEC;
END-ISO-10303-21;
