ISO-10303-21;
HEADER;
FILE_DESCRIPTION (( 'STEP AP203' ),
    '1' );
FILE_NAME ('952308.step',
    '2021-11-01T12:23:53',
    ( '' ),
    ( '' ),
    'SwSTEP 2.0',
    'SolidWorks 2019',
    '' );
FILE_SCHEMA (( 'CONFIG_CONTROL_DESIGN' ));
ENDSEC;

DATA;
#1 = APPROVAL_STATUS ( 'not_yet_approved' ) ;
#2 = AXIS2_PLACEMENT_3D ( 'NONE', #168, #241, #75 ) ;
#3 = DATE_TIME_ROLE ( 'creation_date' ) ;
#4 = PERSON_AND_ORGANIZATION ( #186, #225 ) ;
#5 = ORIENTED_EDGE ( 'NONE', *, *, #59, .F. ) ;
#6 = AXIS2_PLACEMENT_3D ( 'NONE', #89, #145, #71 ) ;
#7 = DIRECTION ( 'NONE',  ( 3.491481338843133355E-15, -1.219242935835426903E-16, 1.000000000000000000 ) ) ;
#8 = CARTESIAN_POINT ( 'NONE',  ( 3.705861487994845781E-14, -1.294105567787278143E-15, 10.61400915069116557 ) ) ;
#9 = ORIENTED_EDGE ( 'NONE', *, *, #242, .T. ) ;
#10 = APPROVAL_PERSON_ORGANIZATION ( #83, #231, #213 ) ;
#11 = CARTESIAN_POINT ( 'NONE',  ( 9.426999614876460059E-15, -4.336808689942017736E-16, 2.699999999999999734 ) ) ;
#12 = CARTESIAN_POINT ( 'NONE',  ( 2.402822912970692685E-14, -8.390779094565406082E-16, 6.881958343122187571 ) ) ;
#13 = CC_DESIGN_PERSON_AND_ORGANIZATION_ASSIGNMENT ( #4, #205, ( #27 ) ) ;
#14 = DIRECTION ( 'NONE',  ( 0.0000000000000000000, -1.000000000000000000, 0.0000000000000000000 ) ) ;
#15 = FACE_BOUND ( 'NONE', #151, .T. ) ;
#16 = CC_DESIGN_PERSON_AND_ORGANIZATION_ASSIGNMENT ( #60, #37, ( #230 ) ) ;
#17 = VERTEX_POINT ( 'NONE', #95 ) ;
#18 = COORDINATED_UNIVERSAL_TIME_OFFSET ( 1, 0, .AHEAD. ) ;
#19 = DIRECTION ( 'NONE',  ( 1.000000000000000000, 0.0000000000000000000, 0.0000000000000000000 ) ) ;
#20 = CALENDAR_DATE ( 2021, 1, 11 ) ;
#21 = AXIS2_PLACEMENT_3D ( 'NONE', #239, #35, #94 ) ;
#22 = ADVANCED_FACE ( 'NONE', ( #47 ), #30, .F. ) ;
#23 = CARTESIAN_POINT ( 'NONE',  ( 0.0000000000000000000, 0.0000000000000000000, 0.0000000000000000000 ) ) ;
#24 = PERSON_AND_ORGANIZATION ( #186, #225 ) ;
#25 = EDGE_LOOP ( 'NONE', ( #61 ) ) ;
#26 = COORDINATED_UNIVERSAL_TIME_OFFSET ( 1, 0, .AHEAD. ) ;
#27 = PRODUCT_DEFINITION_FORMATION_WITH_SPECIFIED_SOURCE ( 'ANY', '', #79, .NOT_KNOWN. ) ;
#28 = AXIS2_PLACEMENT_3D ( 'NONE', #8, #125, #86 ) ;
#29 = DIRECTION ( 'NONE',  ( -3.491481338843133355E-15, 1.224646799147353207E-16, -1.000000000000000000 ) ) ;
#30 = PLANE ( 'NONE',  #6 ) ;
#31 = DIRECTION ( 'NONE',  ( 3.491481338843133355E-15, -1.224646799147353207E-16, 1.000000000000000000 ) ) ;
#32 = ADVANCED_BREP_SHAPE_REPRESENTATION ( '952308', ( #50, #54, #57 ), #159 ) ;
#33 = PLANE ( 'NONE',  #124 ) ;
#34 = EDGE_LOOP ( 'NONE', ( #194 ) ) ;
#35 = DIRECTION ( 'NONE',  ( 3.491481338843133355E-15, -1.219242935835426903E-16, 1.000000000000000000 ) ) ;
#36 = CLOSED_SHELL ( 'NONE', ( #107, #224, #48, #155, #123, #40 ) ) ;
#37 = PERSON_AND_ORGANIZATION_ROLE ( 'classification_officer' ) ;
#38 = EDGE_LOOP ( 'NONE', ( #90 ) ) ;
#39 = CALENDAR_DATE ( 2021, 1, 11 ) ;
#40 = ADVANCED_FACE ( 'NONE', ( #237 ), #33, .F. ) ;
#41 = DATE_TIME_ROLE ( 'classification_date' ) ;
#42 = APPROVAL_DATE_TIME ( #140, #91 ) ;
#43 = EDGE_LOOP ( 'NONE', ( #65 ) ) ;
#44 = FACE_BOUND ( 'NONE', #120, .T. ) ;
#45 = CONICAL_SURFACE ( 'NONE', #184, 1.199999999999996403, 0.7853981633974461696 ) ;
#46 = FACE_OUTER_BOUND ( 'NONE', #43, .T. ) ;
#47 = FACE_OUTER_BOUND ( 'NONE', #73, .T. ) ;
#48 = ADVANCED_FACE ( 'NONE', ( #217 ), #126, .F. ) ;
#49 = DIRECTION ( 'NONE',  ( 0.0000000000000000000, -1.000000000000000000, 0.0000000000000000000 ) ) ;
#50 = MANIFOLD_SOLID_BREP ( 'Corps-Déplacer/Copier1[1]', #36 ) ;
#51 = AXIS2_PLACEMENT_3D ( 'NONE', #12, #166, #52 ) ;
#52 = DIRECTION ( 'NONE',  ( 0.0000000000000000000, -1.000000000000000000, 0.0000000000000000000 ) ) ;
#53 = CARTESIAN_POINT ( 'NONE',  ( 9.426999614876460059E-15, -3.291955926755652440E-16, 2.699999999999999734 ) ) ;
#54 = MANIFOLD_SOLID_BREP ( 'Corps-Déplacer/Copier1[2]', #105 ) ;
#55 = DIRECTION ( 'NONE',  ( 0.0000000000000000000, 1.000000000000000000, 0.0000000000000000000 ) ) ;
#56 = VERTEX_POINT ( 'NONE', #132 ) ;
#57 = AXIS2_PLACEMENT_3D ( 'NONE', #23, #100, #19 ) ;
#58 = DIRECTION ( 'NONE',  ( -3.491481338843133355E-15, 1.224646799147353207E-16, -1.000000000000000000 ) ) ;
#59 = EDGE_CURVE ( 'NONE', #147, #147, #211, .T. ) ;
#60 = PERSON_AND_ORGANIZATION ( #186, #225 ) ;
#61 = ORIENTED_EDGE ( 'NONE', *, *, #242, .F. ) ;
#62 = CIRCLE ( 'NONE', #51, 1.499999999999994893 ) ;
#63 = VERTEX_POINT ( 'NONE', #227 ) ;
#64 = COORDINATED_UNIVERSAL_TIME_OFFSET ( 1, 0, .AHEAD. ) ;
#65 = ORIENTED_EDGE ( 'NONE', *, *, #167, .F. ) ;
#66 = CALENDAR_DATE ( 2021, 1, 11 ) ;
#67 = AXIS2_PLACEMENT_3D ( 'NONE', #11, #165, #161 ) ;
#68 = DIRECTION ( 'NONE',  ( -3.491481338843133355E-15, 1.224646799147353207E-16, -1.000000000000000000 ) ) ;
#69 = EDGE_LOOP ( 'NONE', ( #141 ) ) ;
#70 = CIRCLE ( 'NONE', #21, 0.4499999999999999001 ) ;
#71 = DIRECTION ( 'NONE',  ( -4.275831445896958607E-31, -1.000000000000000000, -1.224646799147353207E-16 ) ) ;
#72 = DIRECTION ( 'NONE',  ( 3.491481338843133355E-15, -1.219242935835426903E-16, 1.000000000000000000 ) ) ;
#73 = EDGE_LOOP ( 'NONE', ( #104 ) ) ;
#74 = FACE_OUTER_BOUND ( 'NONE', #142, .T. ) ;
#75 = DIRECTION ( 'NONE',  ( 0.0000000000000000000, 1.000000000000000000, 0.0000000000000000000 ) ) ;
#76 = CARTESIAN_POINT ( 'NONE',  ( 9.426999614876460059E-15, -0.4500000000000001221, 2.699999999999999734 ) ) ;
#77 = LOCAL_TIME ( 13, 23, 53.00000000000000000, #18 ) ;
#78 = PRODUCT_DEFINITION ( 'UNKNOWN', '', #27, #234 ) ;
#79 = PRODUCT ( '952308', '952308', '', ( #98 ) ) ;
#80 = PERSON_AND_ORGANIZATION ( #186, #225 ) ;
#81 = ORIENTED_EDGE ( 'NONE', *, *, #59, .T. ) ;
#82 = PERSON_AND_ORGANIZATION_ROLE ( 'design_owner' ) ;
#83 = PERSON_AND_ORGANIZATION ( #186, #225 ) ;
#84 = PERSON_AND_ORGANIZATION_ROLE ( 'design_supplier' ) ;
#85 = CYLINDRICAL_SURFACE ( 'NONE', #134, 1.499999999999994893 ) ;
#86 = DIRECTION ( 'NONE',  ( 0.0000000000000000000, -1.000000000000000000, 0.0000000000000000000 ) ) ;
#87 = AXIS2_PLACEMENT_3D ( 'NONE', #53, #222, #14 ) ;
#88 = CALENDAR_DATE ( 2021, 1, 11 ) ;
#89 = CARTESIAN_POINT ( 'NONE',  ( -8.551680453529350800E-31, 2.999525725151307090E-32, -2.449298628175645296E-16 ) ) ;
#90 = ORIENTED_EDGE ( 'NONE', *, *, #172, .T. ) ;
#91 = APPROVAL ( #101, 'UNSPECIFIED' ) ;
#92 = CIRCLE ( 'NONE', #226, 1.499999999999996669 ) ;
#93 = CARTESIAN_POINT ( 'NONE',  ( 1.326762908760390423E-13, -4.653657836759941941E-15, 38.00000000000000000 ) ) ;
#94 = DIRECTION ( 'NONE',  ( -4.256963957985710640E-31, -1.000000000000000000, -1.219242935835426903E-16 ) ) ;
#95 = CARTESIAN_POINT ( 'NONE',  ( 1.316288464743861212E-13, 1.499999999999992228, 37.69999999999999574 ) ) ;
#96 = EDGE_CURVE ( 'NONE', #56, #56, #196, .T. ) ;
#97 = DATE_AND_TIME ( #39, #77 ) ;
#98 = MECHANICAL_CONTEXT ( 'NONE', #208, 'mechanical' ) ;
#99 = AXIS2_PLACEMENT_3D ( 'NONE', #110, #29, #106 ) ;
#100 = DIRECTION ( 'NONE',  ( 0.0000000000000000000, 0.0000000000000000000, 1.000000000000000000 ) ) ;
#101 = APPROVAL_STATUS ( 'not_yet_approved' ) ;
#102 = APPROVAL ( #119, 'UNSPECIFIED' ) ;
#103 = CC_DESIGN_SECURITY_CLASSIFICATION ( #230, ( #27 ) ) ;
#104 = ORIENTED_EDGE ( 'NONE', *, *, #204, .F. ) ;
#105 = CLOSED_SHELL ( 'NONE', ( #218, #160, #22 ) ) ;
#106 = DIRECTION ( 'NONE',  ( 4.275831445896958607E-31, 1.000000000000000000, 1.224646799147353207E-16 ) ) ;
#107 = ADVANCED_FACE ( 'NONE', ( #180, #46 ), #85, .T. ) ;
#108 = DIRECTION ( 'NONE',  ( -4.275831445896958607E-31, -1.000000000000000000, -1.224646799147353207E-16 ) ) ;
#109 = DIRECTION ( 'NONE',  ( 4.275831445896958607E-31, 1.000000000000000000, 1.224646799147353207E-16 ) ) ;
#110 = CARTESIAN_POINT ( 'NONE',  ( 1.326762908760390423E-13, 8.998558695971051224E-33, 38.00000000000000000 ) ) ;
#111 = FACE_OUTER_BOUND ( 'NONE', #209, .T. ) ;
#112 = PRODUCT_DEFINITION_SHAPE ( 'NONE', 'NONE',  #78 ) ;
#113 = DIRECTION ( 'NONE',  ( 3.491481338843133355E-15, -1.224646799147353207E-16, 1.000000000000000000 ) ) ;
#114 = FACE_OUTER_BOUND ( 'NONE', #69, .T. ) ;
#115 = CC_DESIGN_DATE_AND_TIME_ASSIGNMENT ( #138, #41, ( #230 ) ) ;
#116 = COORDINATED_UNIVERSAL_TIME_OFFSET ( 1, 0, .AHEAD. ) ;
#117 = APPLICATION_PROTOCOL_DEFINITION ( 'international standard', 'config_control_design', 1994, #208 ) ;
#118 = CC_DESIGN_PERSON_AND_ORGANIZATION_ASSIGNMENT ( #233, #82, ( #79 ) ) ;
#119 = APPROVAL_STATUS ( 'not_yet_approved' ) ;
#120 = EDGE_LOOP ( 'NONE', ( #206 ) ) ;
#121 = UNCERTAINTY_MEASURE_WITH_UNIT (LENGTH_MEASURE( 1.000000000000000082E-05 ), #190, 'distance_accuracy_value', 'NONE');
#122 = EDGE_LOOP ( 'NONE', ( #5 ) ) ;
#123 = ADVANCED_FACE ( 'NONE', ( #111, #202 ), #188, .F. ) ;
#124 = AXIS2_PLACEMENT_3D ( 'NONE', #197, #31, #108 ) ;
#125 = DIRECTION ( 'NONE',  ( 3.491481338843133355E-15, -1.219242935835426903E-16, 1.000000000000000000 ) ) ;
#126 = PLANE ( 'NONE',  #99 ) ;
#127 = DIRECTION ( 'NONE',  ( 0.0000000000000000000, -1.000000000000000000, 0.0000000000000000000 ) ) ;
#128 = CC_DESIGN_APPROVAL ( #231, ( #78 ) ) ;
#129 = CC_DESIGN_PERSON_AND_ORGANIZATION_ASSIGNMENT ( #24, #84, ( #27 ) ) ;
#130 = CARTESIAN_POINT ( 'NONE',  ( 1.316288464743861212E-13, -4.616918432785521081E-15, 37.69999999999999574 ) ) ;
#131 = PLANE ( 'NONE',  #232 ) ;
#132 = CARTESIAN_POINT ( 'NONE',  ( 1.123432334710171644E-14, -0.5181483474218607777, 3.217638090205028778 ) ) ;
#133 = APPLICATION_CONTEXT ( 'configuration controlled 3d designs of mechanical parts and assemblies' ) ;
#134 = AXIS2_PLACEMENT_3D ( 'NONE', #214, #68, #109 ) ;
#135 = PERSON_AND_ORGANIZATION ( #186, #225 ) ;
#136 = PERSON_AND_ORGANIZATION_ROLE ( 'creator' ) ;
#137 = EDGE_LOOP ( 'NONE', ( #236 ) ) ;
#138 = DATE_AND_TIME ( #66, #191 ) ;
#139 = APPLICATION_PROTOCOL_DEFINITION ( 'international standard', 'config_control_design', 1994, #133 ) ;
#140 = DATE_AND_TIME ( #88, #171 ) ;
#141 = ORIENTED_EDGE ( 'NONE', *, *, #172, .F. ) ;
#142 = EDGE_LOOP ( 'NONE', ( #200 ) ) ;
#143 = DIRECTION ( 'NONE',  ( 3.491481338843133355E-15, -1.219242935835426903E-16, 1.000000000000000000 ) ) ;
#144 = CC_DESIGN_DATE_AND_TIME_ASSIGNMENT ( #97, #3, ( #78 ) ) ;
#145 = DIRECTION ( 'NONE',  ( 3.491481338843133355E-15, -1.224646799147353207E-16, 1.000000000000000000 ) ) ;
#146 = AXIS2_PLACEMENT_3D ( 'NONE', #163, #143, #49 ) ;
#147 = VERTEX_POINT ( 'NONE', #223 ) ;
#148 = LOCAL_TIME ( 13, 23, 53.00000000000000000, #116 ) ;
#149 = CARTESIAN_POINT ( 'NONE',  ( 9.426999614876461637E-15, 1.124819836996387048E-32, 2.700000000000000178 ) ) ;
#150 = APPROVAL_DATE_TIME ( #192, #102 ) ;
#151 = EDGE_LOOP ( 'NONE', ( #9 ) ) ;
#152 = LOCAL_TIME ( 13, 23, 53.00000000000000000, #64 ) ;
#153 = CIRCLE ( 'NONE', #87, 0.4499999999999997891 ) ;
#154 = DATE_AND_TIME ( #20, #148 ) ;
#155 = ADVANCED_FACE ( 'NONE', ( #44, #178 ), #240, .T. ) ;
#156 = SECURITY_CLASSIFICATION_LEVEL ( 'unclassified' ) ;
#157 = PRODUCT_RELATED_PRODUCT_CATEGORY ( 'detail', '', ( #79 ) ) ;
#158 =( NAMED_UNIT ( * ) PLANE_ANGLE_UNIT ( ) SI_UNIT ( $, .RADIAN. ) );
#159 =( GEOMETRIC_REPRESENTATION_CONTEXT ( 3 ) GLOBAL_UNCERTAINTY_ASSIGNED_CONTEXT ( ( #121 ) ) GLOBAL_UNIT_ASSIGNED_CONTEXT ( ( #190, #158, #170 ) ) REPRESENTATION_CONTEXT ( 'NONE', 'WORKASPACE' ) );
#160 = ADVANCED_FACE ( 'NONE', ( #198, #221 ), #238, .T. ) ;
#161 = DIRECTION ( 'NONE',  ( -4.316638776869437357E-31, -1.000000000000000000, -1.219242935835426903E-16 ) ) ;
#162 = APPROVAL_ROLE ( '' ) ;
#163 = CARTESIAN_POINT ( 'NONE',  ( 9.426999614876460059E-15, -3.291955926755652440E-16, 2.699999999999999734 ) ) ;
#164 = CARTESIAN_POINT ( 'NONE',  ( 1.123432334710171644E-14, -3.923082511557475677E-16, 3.217638090205028778 ) ) ;
#165 = DIRECTION ( 'NONE',  ( 3.491481338843133355E-15, -1.219242935835426903E-16, 1.000000000000000000 ) ) ;
#166 = DIRECTION ( 'NONE',  ( -3.491481338843133355E-15, 1.219242935835426903E-16, -1.000000000000000000 ) ) ;
#167 = EDGE_CURVE ( 'NONE', #203, #203, #62, .T. ) ;
#168 = CARTESIAN_POINT ( 'NONE',  ( 1.326762908760390423E-13, -4.653657836759941941E-15, 38.00000000000000000 ) ) ;
#169 = AXIS2_PLACEMENT_3D ( 'NONE', #164, #7, #127 ) ;
#170 =( NAMED_UNIT ( * ) SI_UNIT ( $, .STERADIAN. ) SOLID_ANGLE_UNIT ( ) );
#171 = LOCAL_TIME ( 13, 23, 53.00000000000000000, #26 ) ;
#172 = EDGE_CURVE ( 'NONE', #17, #17, #92, .T. ) ;
#173 = AXIS2_PLACEMENT_3D ( 'NONE', #181, #72, #220 ) ;
#174 = APPROVAL_DATE_TIME ( #154, #231 ) ;
#175 = APPROVAL_ROLE ( '' ) ;
#176 = APPROVAL_PERSON_ORGANIZATION ( #80, #102, #175 ) ;
#177 = EDGE_LOOP ( 'NONE', ( #179 ) ) ;
#178 = FACE_OUTER_BOUND ( 'NONE', #137, .T. ) ;
#179 = ORIENTED_EDGE ( 'NONE', *, *, #199, .F. ) ;
#180 = FACE_OUTER_BOUND ( 'NONE', #38, .T. ) ;
#181 = CARTESIAN_POINT ( 'NONE',  ( 0.0000000000000000000, 0.0000000000000000000, 0.0000000000000000000 ) ) ;
#182 = DIRECTION ( 'NONE',  ( 0.0000000000000000000, 1.000000000000000000, 0.0000000000000000000 ) ) ;
#183 = DIRECTION ( 'NONE',  ( -4.275831445896958607E-31, -1.000000000000000000, -1.224646799147353207E-16 ) ) ;
#184 = AXIS2_PLACEMENT_3D ( 'NONE', #93, #58, #55 ) ;
#185 = CARTESIAN_POINT ( 'NONE',  ( 2.402822912970692685E-14, -1.499999999999995781, 6.881958343122187571 ) ) ;
#186 = PERSON ( 'UNSPECIFIED', 'UNSPECIFIED', 'UNSPECIFIED', ('UNSPECIFIED'), ('UNSPECIFIED'), ('UNSPECIFIED') ) ;
#187 = CC_DESIGN_PERSON_AND_ORGANIZATION_ASSIGNMENT ( #135, #136, ( #78 ) ) ;
#188 = TOROIDAL_SURFACE ( 'NONE', #67, 2.450000000000000622, 2.000000000000000444 ) ;
#189 = CARTESIAN_POINT ( 'NONE',  ( -2.734837563809124309E-30, -0.4499999999999999001, -7.832886097324194730E-16 ) ) ;
#190 =( LENGTH_UNIT ( ) NAMED_UNIT ( * ) SI_UNIT ( .MILLI., .METRE. ) );
#191 = LOCAL_TIME ( 13, 23, 53.00000000000000000, #229 ) ;
#192 = DATE_AND_TIME ( #228, #152 ) ;
#193 = PERSON_AND_ORGANIZATION ( #186, #225 ) ;
#194 = ORIENTED_EDGE ( 'NONE', *, *, #96, .F. ) ;
#195 = EDGE_LOOP ( 'NONE', ( #219 ) ) ;
#196 = CIRCLE ( 'NONE', #169, 0.5181483474218603336 ) ;
#197 = CARTESIAN_POINT ( 'NONE',  ( 9.426999614876461637E-15, 1.124819836996387048E-32, 2.700000000000000178 ) ) ;
#198 = FACE_OUTER_BOUND ( 'NONE', #195, .T. ) ;
#199 = EDGE_CURVE ( 'NONE', #243, #243, #153, .T. ) ;
#200 = ORIENTED_EDGE ( 'NONE', *, *, #199, .T. ) ;
#201 = CC_DESIGN_APPROVAL ( #102, ( #27 ) ) ;
#202 = FACE_OUTER_BOUND ( 'NONE', #34, .T. ) ;
#203 = VERTEX_POINT ( 'NONE', #185 ) ;
#204 = EDGE_CURVE ( 'NONE', #207, #207, #70, .T. ) ;
#205 = PERSON_AND_ORGANIZATION_ROLE ( 'creator' ) ;
#206 = ORIENTED_EDGE ( 'NONE', *, *, #96, .T. ) ;
#207 = VERTEX_POINT ( 'NONE', #189 ) ;
#208 = APPLICATION_CONTEXT ( 'configuration controlled 3d designs of mechanical parts and assemblies' ) ;
#209 = EDGE_LOOP ( 'NONE', ( #81 ) ) ;
#210 = APPROVAL_PERSON_ORGANIZATION ( #193, #91, #162 ) ;
#211 = CIRCLE ( 'NONE', #146, 0.4499999999999997891 ) ;
#212 = CC_DESIGN_APPROVAL ( #91, ( #230 ) ) ;
#213 = APPROVAL_ROLE ( '' ) ;
#214 = CARTESIAN_POINT ( 'NONE',  ( 0.0000000000000000000, 0.0000000000000000000, 0.0000000000000000000 ) ) ;
#215 = SHAPE_DEFINITION_REPRESENTATION ( #112, #32 ) ;
#216 = CIRCLE ( 'NONE', #2, 1.199999999999996403 ) ;
#217 = FACE_OUTER_BOUND ( 'NONE', #25, .T. ) ;
#218 = ADVANCED_FACE ( 'NONE', ( #74 ), #131, .T. ) ;
#219 = ORIENTED_EDGE ( 'NONE', *, *, #204, .T. ) ;
#220 = DIRECTION ( 'NONE',  ( -4.256963957985708889E-31, -1.000000000000000000, -1.219242935835426903E-16 ) ) ;
#221 = FACE_OUTER_BOUND ( 'NONE', #177, .T. ) ;
#222 = DIRECTION ( 'NONE',  ( 3.491481338843133355E-15, -1.219242935835426903E-16, 1.000000000000000000 ) ) ;
#223 = CARTESIAN_POINT ( 'NONE',  ( 9.426999614876460059E-15, -0.4500000000000001221, 2.699999999999999734 ) ) ;
#224 = ADVANCED_FACE ( 'NONE', ( #114, #15 ), #45, .T. ) ;
#225 = ORGANIZATION ( 'UNSPECIFIED', 'UNSPECIFIED', '' ) ;
#226 = AXIS2_PLACEMENT_3D ( 'NONE', #130, #235, #182 ) ;
#227 = CARTESIAN_POINT ( 'NONE',  ( 1.326762908760390423E-13, 1.199999999999991962, 38.00000000000000000 ) ) ;
#228 = CALENDAR_DATE ( 2021, 1, 11 ) ;
#229 = COORDINATED_UNIVERSAL_TIME_OFFSET ( 1, 0, .AHEAD. ) ;
#230 = SECURITY_CLASSIFICATION ( '', '', #156 ) ;
#231 = APPROVAL ( #1, 'UNSPECIFIED' ) ;
#232 = AXIS2_PLACEMENT_3D ( 'NONE', #149, #113, #183 ) ;
#233 = PERSON_AND_ORGANIZATION ( #186, #225 ) ;
#234 = DESIGN_CONTEXT ( 'detailed design', #133, 'design' ) ;
#235 = DIRECTION ( 'NONE',  ( -3.491481338843133355E-15, 1.224646799147353207E-16, -1.000000000000000000 ) ) ;
#236 = ORIENTED_EDGE ( 'NONE', *, *, #167, .T. ) ;
#237 = FACE_OUTER_BOUND ( 'NONE', #122, .T. ) ;
#238 = CYLINDRICAL_SURFACE ( 'NONE', #173, 0.4499999999999998446 ) ;
#239 = CARTESIAN_POINT ( 'NONE',  ( -2.543274185699767422E-30, 8.881242039902983900E-32, -7.284226776198252328E-16 ) ) ;
#240 = CONICAL_SURFACE ( 'NONE', #28, 2.499999999999995559, 0.2617993877991429685 ) ;
#241 = DIRECTION ( 'NONE',  ( -3.491481338843133355E-15, 1.224646799147353207E-16, -1.000000000000000000 ) ) ;
#242 = EDGE_CURVE ( 'NONE', #63, #63, #216, .T. ) ;
#243 = VERTEX_POINT ( 'NONE', #76 ) ;
ENDSEC;
END-ISO-10303-21;
