ISO-10303-21;
HEADER;
FILE_DESCRIPTION (( 'STEP AP203' ),
    '1' );
FILE_NAME ('952295.step',
    '2023-02-16T09:47:36',
    ( '' ),
    ( '' ),
    'SwSTEP 2.0',
    'SolidWorks 2019',
    '' );
FILE_SCHEMA (( 'CONFIG_CONTROL_DESIGN' ));
ENDSEC;

DATA;
#1 = APPROVAL_DATE_TIME ( #37, #123 ) ;
#2 = PERSON_AND_ORGANIZATION ( #68, #89 ) ;
#3 = PRODUCT_DEFINITION_SHAPE ( 'NONE', 'NONE',  #100 ) ;
#4 = CARTESIAN_POINT ( 'NONE',  ( -5.399999999999975486, 5.999999999999993783, 0.000000000000000000 ) ) ;
#5 = CIRCLE ( 'NONE', #125, 5.999999999999994671 ) ;
#6 = APPROVAL_DATE_TIME ( #137, #148 ) ;
#7 = AXIS2_PLACEMENT_3D ( 'NONE', #141, #81, #79 ) ;
#8 = EDGE_CURVE ( 'NONE', #86, #86, #101, .T. ) ;
#9 = EDGE_LOOP ( 'NONE', ( #202 ) ) ;
#10 = PERSON_AND_ORGANIZATION_ROLE ( 'classification_officer' ) ;
#11 = AXIS2_PLACEMENT_3D ( 'NONE', #12, #198, #135 ) ;
#12 = CARTESIAN_POINT ( 'NONE',  ( -5.399999999999975486, 4.499279347985567350E-32, 0.000000000000000000 ) ) ;
#13 = AXIS2_PLACEMENT_3D ( 'NONE', #99, #82, #201 ) ;
#14 = ORIENTED_EDGE ( 'NONE', *, *, #56, .T. ) ;
#15 = LOCAL_TIME ( 10, 47, 36.00000000000000000, #154 ) ;
#16 = PLANE ( 'NONE',  #169 ) ;
#17 = CARTESIAN_POINT ( 'NONE',  ( -73.00000000000000000, 3.599423478388447859E-32, 0.000000000000000000 ) ) ;
#18 = ADVANCED_FACE ( 'NONE', ( #174, #131 ), #57, .T. ) ;
#19 =( NAMED_UNIT ( * ) SI_UNIT ( $, .STERADIAN. ) SOLID_ANGLE_UNIT ( ) );
#20 = DIRECTION ( 'NONE',  ( 0.000000000000000000, 0.000000000000000000, 1.000000000000000000 ) ) ;
#21 = CARTESIAN_POINT ( 'NONE',  ( -73.00000000000000000, 4.799999999999994493, 0.000000000000000000 ) ) ;
#22 = CC_DESIGN_PERSON_AND_ORGANIZATION_ASSIGNMENT ( #91, #10, ( #170 ) ) ;
#23 = APPROVAL_STATUS ( 'not_yet_approved' ) ;
#24 = AXIS2_PLACEMENT_3D ( 'NONE', #114, #127, #190 ) ;
#25 = APPLICATION_PROTOCOL_DEFINITION ( 'international standard', 'config_control_design', 1994, #167 ) ;
#26 = SHAPE_DEFINITION_REPRESENTATION ( #3, #62 ) ;
#27 = PRODUCT_DEFINITION_FORMATION_WITH_SPECIFIED_SOURCE ( 'ANY', '', #104, .NOT_KNOWN. ) ;
#28 = EDGE_LOOP ( 'NONE', ( #14 ) ) ;
#29 = DIRECTION ( 'NONE',  ( 1.224646799147352961E-16, -1.000000000000000000, 0.000000000000000000 ) ) ;
#30 = APPROVAL ( #109, 'UNSPECIFIED' ) ;
#31 = DIRECTION ( 'NONE',  ( 1.000000000000000000, 1.224646799147353207E-16, -0.000000000000000000 ) ) ;
#32 = ORIENTED_EDGE ( 'NONE', *, *, #179, .T. ) ;
#33 = DESIGN_CONTEXT ( 'detailed design', #167, 'design' ) ;
#34 = FACE_BOUND ( 'NONE', #77, .T. ) ;
#35 = EDGE_LOOP ( 'NONE', ( #126 ) ) ;
#36 = PERSON_AND_ORGANIZATION_ROLE ( 'design_supplier' ) ;
#37 = DATE_AND_TIME ( #183, #52 ) ;
#38 = APPROVAL_ROLE ( '' ) ;
#39 = DATE_AND_TIME ( #194, #40 ) ;
#40 = LOCAL_TIME ( 10, 47, 36.00000000000000000, #103 ) ;
#41 = APPROVAL_ROLE ( '' ) ;
#42 = DIRECTION ( 'NONE',  ( -1.224646799147353207E-16, 1.000000000000000000, 0.000000000000000000 ) ) ;
#43 = CC_DESIGN_PERSON_AND_ORGANIZATION_ASSIGNMENT ( #178, #87, ( #27 ) ) ;
#44 = CC_DESIGN_APPROVAL ( #123, ( #27 ) ) ;
#45 = DIRECTION ( 'NONE',  ( 1.224646799147353207E-16, -1.000000000000000000, 0.000000000000000000 ) ) ;
#46 = ORIENTED_EDGE ( 'NONE', *, *, #8, .T. ) ;
#47 = AXIS2_PLACEMENT_3D ( 'NONE', #97, #172, #29 ) ;
#48 = PLANE ( 'NONE',  #88 ) ;
#49 = AXIS2_PLACEMENT_3D ( 'NONE', #85, #20, #74 ) ;
#50 = FACE_OUTER_BOUND ( 'NONE', #65, .T. ) ;
#51 = CALENDAR_DATE ( 2023, 16, 2 ) ;
#52 = LOCAL_TIME ( 10, 47, 36.00000000000000000, #147 ) ;
#53 = PERSON_AND_ORGANIZATION_ROLE ( 'design_owner' ) ;
#54 =( LENGTH_UNIT ( ) NAMED_UNIT ( * ) SI_UNIT ( .MILLI., .METRE. ) );
#55 = DATE_AND_TIME ( #186, #195 ) ;
#56 = EDGE_CURVE ( 'NONE', #180, #180, #175, .T. ) ;
#57 = CONICAL_SURFACE ( 'NONE', #13, 4.800000000000003375, 0.7853981633974453924 ) ;
#58 = ORIENTED_EDGE ( 'NONE', *, *, #56, .F. ) ;
#59 = CC_DESIGN_PERSON_AND_ORGANIZATION_ASSIGNMENT ( #2, #71, ( #100 ) ) ;
#60 = DIRECTION ( 'NONE',  ( 1.000000000000000000, 1.224646799147353207E-16, -0.000000000000000000 ) ) ;
#61 = FACE_OUTER_BOUND ( 'NONE', #28, .T. ) ;
#62 = ADVANCED_BREP_SHAPE_REPRESENTATION ( '952295', ( #112, #152, #49 ), #96 ) ;
#63 = EDGE_LOOP ( 'NONE', ( #113 ) ) ;
#64 = UNCERTAINTY_MEASURE_WITH_UNIT (LENGTH_MEASURE( 1.000000000000000082E-05 ), #54, 'distance_accuracy_value', 'NONE');
#65 = EDGE_LOOP ( 'NONE', ( #46 ) ) ;
#66 = CC_DESIGN_DATE_AND_TIME_ASSIGNMENT ( #55, #140, ( #170 ) ) ;
#67 = DIRECTION ( 'NONE',  ( 1.000000000000000000, 1.224646799147353207E-16, -0.000000000000000000 ) ) ;
#68 = PERSON ( 'UNSPECIFIED', 'UNSPECIFIED', 'UNSPECIFIED', ('UNSPECIFIED'), ('UNSPECIFIED'), ('UNSPECIFIED') ) ;
#69 = CC_DESIGN_SECURITY_CLASSIFICATION ( #170, ( #27 ) ) ;
#70 = PERSON_AND_ORGANIZATION ( #68, #89 ) ;
#71 = PERSON_AND_ORGANIZATION_ROLE ( 'creator' ) ;
#72 = CONICAL_SURFACE ( 'NONE', #47, 0.5999999999999999778, 0.7853981633974502774 ) ;
#73 = DATE_TIME_ROLE ( 'creation_date' ) ;
#74 = DIRECTION ( 'NONE',  ( 1.000000000000000000, 0.000000000000000000, 0.000000000000000000 ) ) ;
#75 = CLOSED_SHELL ( 'NONE', ( #130, #78, #18, #171 ) ) ;
#76 = APPROVAL_DATE_TIME ( #168, #30 ) ;
#77 = EDGE_LOOP ( 'NONE', ( #93 ) ) ;
#78 = ADVANCED_FACE ( 'NONE', ( #146, #115 ), #192, .T. ) ;
#79 = DIRECTION ( 'NONE',  ( -1.224646799147352961E-16, 1.000000000000000000, 0.000000000000000000 ) ) ;
#80 = DIRECTION ( 'NONE',  ( -1.224646799147353207E-16, 1.000000000000000000, 0.000000000000000000 ) ) ;
#81 = DIRECTION ( 'NONE',  ( 1.000000000000000000, 1.224646799147353207E-16, -0.000000000000000000 ) ) ;
#82 = DIRECTION ( 'NONE',  ( 1.000000000000000000, 1.224646799147353207E-16, -0.000000000000000000 ) ) ;
#83 = ADVANCED_FACE ( 'NONE', ( #50 ), #48, .T. ) ;
#84 = DIRECTION ( 'NONE',  ( 1.000000000000000000, 1.224646799147353207E-16, -0.000000000000000000 ) ) ;
#85 = CARTESIAN_POINT ( 'NONE',  ( 0.000000000000000000, 0.000000000000000000, 0.000000000000000000 ) ) ;
#86 = VERTEX_POINT ( 'NONE', #165 ) ;
#87 = PERSON_AND_ORGANIZATION_ROLE ( 'creator' ) ;
#88 = AXIS2_PLACEMENT_3D ( 'NONE', #118, #60, #117 ) ;
#89 = ORGANIZATION ( 'UNSPECIFIED', 'UNSPECIFIED', '' ) ;
#90 = CALENDAR_DATE ( 2023, 16, 2 ) ;
#91 = PERSON_AND_ORGANIZATION ( #68, #89 ) ;
#92 = FACE_OUTER_BOUND ( 'NONE', #191, .T. ) ;
#93 = ORIENTED_EDGE ( 'NONE', *, *, #8, .F. ) ;
#94 = EDGE_CURVE ( 'NONE', #136, #136, #200, .T. ) ;
#95 = DIRECTION ( 'NONE',  ( -1.445602896647340642E-16, 1.000000000000000000, 0.000000000000000000 ) ) ;
#96 =( GEOMETRIC_REPRESENTATION_CONTEXT ( 3 ) GLOBAL_UNCERTAINTY_ASSIGNED_CONTEXT ( ( #64 ) ) GLOBAL_UNIT_ASSIGNED_CONTEXT ( ( #54, #161, #19 ) ) REPRESENTATION_CONTEXT ( 'NONE', 'WORKASPACE' ) );
#97 = CARTESIAN_POINT ( 'NONE',  ( 7.347880794884117764E-17, 8.998558695971144279E-33, 0.000000000000000000 ) ) ;
#98 = CC_DESIGN_APPROVAL ( #30, ( #170 ) ) ;
#99 = CARTESIAN_POINT ( 'NONE',  ( -73.00000000000000000, -8.939921633775676859E-15, 0.000000000000000000 ) ) ;
#100 = PRODUCT_DEFINITION ( 'UNKNOWN', '', #27, #33 ) ;
#101 = CIRCLE ( 'NONE', #7, 0.5999999999999999778 ) ;
#102 = VERTEX_POINT ( 'NONE', #21 ) ;
#103 = COORDINATED_UNIVERSAL_TIME_OFFSET ( 1, 0, .AHEAD. ) ;
#104 = PRODUCT ( '952295', '952295', '', ( #121 ) ) ;
#105 = COORDINATED_UNIVERSAL_TIME_OFFSET ( 1, 0, .AHEAD. ) ;
#106 = CC_DESIGN_PERSON_AND_ORGANIZATION_ASSIGNMENT ( #196, #36, ( #27 ) ) ;
#107 = PERSON_AND_ORGANIZATION ( #68, #89 ) ;
#108 = AXIS2_PLACEMENT_3D ( 'NONE', #17, #84, #42 ) ;
#109 = APPROVAL_STATUS ( 'not_yet_approved' ) ;
#110 = CIRCLE ( 'NONE', #188, 4.800000000000003375 ) ;
#111 = APPROVAL_PERSON_ORGANIZATION ( #122, #30, #41 ) ;
#112 = MANIFOLD_SOLID_BREP ( 'Révolution1', #75 ) ;
#113 = ORIENTED_EDGE ( 'NONE', *, *, #162, .F. ) ;
#114 = CARTESIAN_POINT ( 'NONE',  ( -71.79999999999998295, -8.792964017877994997E-15, 0.000000000000000000 ) ) ;
#115 = FACE_OUTER_BOUND ( 'NONE', #142, .T. ) ;
#116 = CC_DESIGN_DATE_AND_TIME_ASSIGNMENT ( #39, #73, ( #100 ) ) ;
#117 = DIRECTION ( 'NONE',  ( -1.224646799147353207E-16, 1.000000000000000000, 0.000000000000000000 ) ) ;
#118 = CARTESIAN_POINT ( 'NONE',  ( 3.673940397442058882E-17, 4.499279347985572139E-33, 0.000000000000000000 ) ) ;
#119 = CARTESIAN_POINT ( 'NONE',  ( -5.399999999999975486, 4.499279347985567350E-32, 0.000000000000000000 ) ) ;
#120 = APPROVAL_ROLE ( '' ) ;
#121 = MECHANICAL_CONTEXT ( 'NONE', #155, 'mechanical' ) ;
#122 = PERSON_AND_ORGANIZATION ( #68, #89 ) ;
#123 = APPROVAL ( #23, 'UNSPECIFIED' ) ;
#124 = COORDINATED_UNIVERSAL_TIME_OFFSET ( 1, 0, .AHEAD. ) ;
#125 = AXIS2_PLACEMENT_3D ( 'NONE', #193, #177, #160 ) ;
#126 = ORIENTED_EDGE ( 'NONE', *, *, #94, .F. ) ;
#127 = DIRECTION ( 'NONE',  ( 1.000000000000000000, 1.224646799147353207E-16, -0.000000000000000000 ) ) ;
#128 = CLOSED_SHELL ( 'NONE', ( #83, #151, #187 ) ) ;
#129 = CARTESIAN_POINT ( 'NONE',  ( -73.00000000000000000, -8.939921633775676859E-15, 0.000000000000000000 ) ) ;
#130 = ADVANCED_FACE ( 'NONE', ( #145 ), #16, .F. ) ;
#131 = FACE_BOUND ( 'NONE', #9, .T. ) ;
#132 = ORIENTED_EDGE ( 'NONE', *, *, #94, .T. ) ;
#133 = FACE_OUTER_BOUND ( 'NONE', #63, .T. ) ;
#134 = LOCAL_TIME ( 10, 47, 36.00000000000000000, #105 ) ;
#135 = DIRECTION ( 'NONE',  ( 1.224646799147353207E-16, -1.000000000000000000, 0.000000000000000000 ) ) ;
#136 = VERTEX_POINT ( 'NONE', #182 ) ;
#137 = DATE_AND_TIME ( #51, #134 ) ;
#138 = VERTEX_POINT ( 'NONE', #4 ) ;
#139 = CC_DESIGN_PERSON_AND_ORGANIZATION_ASSIGNMENT ( #107, #53, ( #104 ) ) ;
#140 = DATE_TIME_ROLE ( 'classification_date' ) ;
#141 = CARTESIAN_POINT ( 'NONE',  ( 7.347880794884117764E-17, 8.998558695971144279E-33, 0.000000000000000000 ) ) ;
#142 = EDGE_LOOP ( 'NONE', ( #132 ) ) ;
#143 = AXIS2_PLACEMENT_3D ( 'NONE', #157, #158, #80 ) ;
#144 = ORIENTED_EDGE ( 'NONE', *, *, #179, .F. ) ;
#145 = FACE_OUTER_BOUND ( 'NONE', #203, .T. ) ;
#146 = FACE_OUTER_BOUND ( 'NONE', #199, .T. ) ;
#147 = COORDINATED_UNIVERSAL_TIME_OFFSET ( 1, 0, .AHEAD. ) ;
#148 = APPROVAL ( #150, 'UNSPECIFIED' ) ;
#149 = CARTESIAN_POINT ( 'NONE',  ( -5.399999999999975486, 5.999999999999993783, 0.000000000000000000 ) ) ;
#150 = APPROVAL_STATUS ( 'not_yet_approved' ) ;
#151 = ADVANCED_FACE ( 'NONE', ( #61, #34 ), #72, .T. ) ;
#152 = MANIFOLD_SOLID_BREP ( 'Révolution2', #128 ) ;
#153 = AXIS2_PLACEMENT_3D ( 'NONE', #173, #31, #95 ) ;
#154 = COORDINATED_UNIVERSAL_TIME_OFFSET ( 1, 0, .AHEAD. ) ;
#155 = APPLICATION_CONTEXT ( 'configuration controlled 3d designs of mechanical parts and assemblies' ) ;
#156 = PLANE ( 'NONE',  #11 ) ;
#157 = CARTESIAN_POINT ( 'NONE',  ( 0.000000000000000000, 0.000000000000000000, 0.000000000000000000 ) ) ;
#158 = DIRECTION ( 'NONE',  ( 1.000000000000000000, 1.224646799147353207E-16, -0.000000000000000000 ) ) ;
#159 = PLANE ( 'NONE',  #108 ) ;
#160 = DIRECTION ( 'NONE',  ( -1.445602896647340642E-16, 1.000000000000000000, 0.000000000000000000 ) ) ;
#161 =( NAMED_UNIT ( * ) PLANE_ANGLE_UNIT ( ) SI_UNIT ( $, .RADIAN. ) );
#162 = EDGE_CURVE ( 'NONE', #102, #102, #110, .T. ) ;
#163 = SECURITY_CLASSIFICATION_LEVEL ( 'unclassified' ) ;
#164 = PERSON_AND_ORGANIZATION ( #68, #89 ) ;
#165 = CARTESIAN_POINT ( 'NONE',  ( 0.000000000000000000, 0.5999999999999999778, 0.000000000000000000 ) ) ;
#166 = APPROVAL_PERSON_ORGANIZATION ( #70, #148, #38 ) ;
#167 = APPLICATION_CONTEXT ( 'configuration controlled 3d designs of mechanical parts and assemblies' ) ;
#168 = DATE_AND_TIME ( #90, #15 ) ;
#169 = AXIS2_PLACEMENT_3D ( 'NONE', #119, #176, #45 ) ;
#170 = SECURITY_CLASSIFICATION ( '', '', #163 ) ;
#171 = ADVANCED_FACE ( 'NONE', ( #133 ), #159, .F. ) ;
#172 = DIRECTION ( 'NONE',  ( -1.000000000000000000, -1.224646799147353207E-16, 0.000000000000000000 ) ) ;
#173 = CARTESIAN_POINT ( 'NONE',  ( -5.399999999999974598, -6.613092715395675912E-16, 0.000000000000000000 ) ) ;
#174 = FACE_OUTER_BOUND ( 'NONE', #35, .T. ) ;
#175 = CIRCLE ( 'NONE', #153, 5.999999999999994671 ) ;
#176 = DIRECTION ( 'NONE',  ( -1.000000000000000000, -1.224646799147353207E-16, 0.000000000000000000 ) ) ;
#177 = DIRECTION ( 'NONE',  ( 1.000000000000000000, 1.224646799147353207E-16, -0.000000000000000000 ) ) ;
#178 = PERSON_AND_ORGANIZATION ( #68, #89 ) ;
#179 = EDGE_CURVE ( 'NONE', #138, #138, #5, .T. ) ;
#180 = VERTEX_POINT ( 'NONE', #149 ) ;
#181 = APPROVAL_PERSON_ORGANIZATION ( #164, #123, #120 ) ;
#182 = CARTESIAN_POINT ( 'NONE',  ( -71.79999999999998295, 5.999999999999993783, 0.000000000000000000 ) ) ;
#183 = CALENDAR_DATE ( 2023, 16, 2 ) ;
#184 = APPLICATION_PROTOCOL_DEFINITION ( 'international standard', 'config_control_design', 1994, #155 ) ;
#185 = CC_DESIGN_APPROVAL ( #148, ( #100 ) ) ;
#186 = CALENDAR_DATE ( 2023, 16, 2 ) ;
#187 = ADVANCED_FACE ( 'NONE', ( #92 ), #156, .T. ) ;
#188 = AXIS2_PLACEMENT_3D ( 'NONE', #129, #67, #189 ) ;
#189 = DIRECTION ( 'NONE',  ( 0.000000000000000000, 1.000000000000000000, 0.000000000000000000 ) ) ;
#190 = DIRECTION ( 'NONE',  ( 0.000000000000000000, 1.000000000000000000, 0.000000000000000000 ) ) ;
#191 = EDGE_LOOP ( 'NONE', ( #58 ) ) ;
#192 = CYLINDRICAL_SURFACE ( 'NONE', #143, 5.999999999999998224 ) ;
#193 = CARTESIAN_POINT ( 'NONE',  ( -5.399999999999974598, -6.613092715395675912E-16, 0.000000000000000000 ) ) ;
#194 = CALENDAR_DATE ( 2023, 16, 2 ) ;
#195 = LOCAL_TIME ( 10, 47, 36.00000000000000000, #124 ) ;
#196 = PERSON_AND_ORGANIZATION ( #68, #89 ) ;
#197 = PRODUCT_RELATED_PRODUCT_CATEGORY ( 'detail', '', ( #104 ) ) ;
#198 = DIRECTION ( 'NONE',  ( -1.000000000000000000, -1.224646799147353207E-16, 0.000000000000000000 ) ) ;
#199 = EDGE_LOOP ( 'NONE', ( #144 ) ) ;
#200 = CIRCLE ( 'NONE', #24, 6.000000000000002665 ) ;
#201 = DIRECTION ( 'NONE',  ( 0.000000000000000000, 1.000000000000000000, 0.000000000000000000 ) ) ;
#202 = ORIENTED_EDGE ( 'NONE', *, *, #162, .T. ) ;
#203 = EDGE_LOOP ( 'NONE', ( #32 ) ) ;
ENDSEC;
END-ISO-10303-21;
