ISO-10303-21;
HEADER;
FILE_DESCRIPTION (( 'STEP AP203' ),
    '1' );
FILE_NAME ('952294.step',
    '2023-02-16T09:47:35',
    ( '' ),
    ( '' ),
    'SwSTEP 2.0',
    'SolidWorks 2019',
    '' );
FILE_SCHEMA (( 'CONFIG_CONTROL_DESIGN' ));
ENDSEC;

DATA;
#1 = PERSON_AND_ORGANIZATION ( #62, #186 ) ;
#2 = CLOSED_SHELL ( 'NONE', ( #110, #94, #133 ) ) ;
#3 = PERSON_AND_ORGANIZATION ( #62, #186 ) ;
#4 = DIRECTION ( 'NONE',  ( 0.000000000000000000, 1.000000000000000000, 0.000000000000000000 ) ) ;
#5 = ORIENTED_EDGE ( 'NONE', *, *, #64, .T. ) ;
#6 = DIRECTION ( 'NONE',  ( 1.224646799147353207E-16, -1.000000000000000000, 0.000000000000000000 ) ) ;
#7 = CC_DESIGN_APPROVAL ( #44, ( #109 ) ) ;
#8 = AXIS2_PLACEMENT_3D ( 'NONE', #181, #103, #201 ) ;
#9 = LOCAL_TIME ( 10, 47, 35.00000000000000000, #134 ) ;
#10 = ORIENTED_EDGE ( 'NONE', *, *, #179, .T. ) ;
#11 =( NAMED_UNIT ( * ) PLANE_ANGLE_UNIT ( ) SI_UNIT ( $, .RADIAN. ) );
#12 = CARTESIAN_POINT ( 'NONE',  ( 0.000000000000000000, 0.000000000000000000, 0.000000000000000000 ) ) ;
#13 = DIRECTION ( 'NONE',  ( -1.000000000000000000, -1.224646799147353207E-16, 0.000000000000000000 ) ) ;
#14 = DIRECTION ( 'NONE',  ( -1.224646799147353207E-16, 1.000000000000000000, 0.000000000000000000 ) ) ;
#15 = COORDINATED_UNIVERSAL_TIME_OFFSET ( 1, 0, .AHEAD. ) ;
#16 = CARTESIAN_POINT ( 'NONE',  ( -49.50000000000000000, -6.062001655779398511E-15, 0.000000000000000000 ) ) ;
#17 = DIRECTION ( 'NONE',  ( 1.000000000000000000, 1.224646799147353207E-16, -0.000000000000000000 ) ) ;
#18 = EDGE_LOOP ( 'NONE', ( #5 ) ) ;
#19 = DIRECTION ( 'NONE',  ( 1.000000000000000000, 1.224646799147353207E-16, -0.000000000000000000 ) ) ;
#20 = DIRECTION ( 'NONE',  ( 0.000000000000000000, 0.000000000000000000, 1.000000000000000000 ) ) ;
#21 = DIRECTION ( 'NONE',  ( 1.000000000000000000, 1.224646799147353207E-16, -0.000000000000000000 ) ) ;
#22 = DIRECTION ( 'NONE',  ( 1.000000000000000000, 0.000000000000000000, 0.000000000000000000 ) ) ;
#23 = CARTESIAN_POINT ( 'NONE',  ( -2.249999999999984457, 2.499999999999992895, 0.000000000000000000 ) ) ;
#24 = CARTESIAN_POINT ( 'NONE',  ( -49.50000000000000000, 2.499999999999992895, 0.000000000000000000 ) ) ;
#25 = COORDINATED_UNIVERSAL_TIME_OFFSET ( 1, 0, .AHEAD. ) ;
#26 = CC_DESIGN_APPROVAL ( #135, ( #58 ) ) ;
#27 = PERSON_AND_ORGANIZATION_ROLE ( 'creator' ) ;
#28 = DESIGN_CONTEXT ( 'detailed design', #71, 'design' ) ;
#29 = UNCERTAINTY_MEASURE_WITH_UNIT (LENGTH_MEASURE( 1.000000000000000082E-05 ), #202, 'distance_accuracy_value', 'NONE');
#30 = PERSON_AND_ORGANIZATION ( #62, #186 ) ;
#31 = APPROVAL ( #152, 'UNSPECIFIED' ) ;
#32 = EDGE_LOOP ( 'NONE', ( #98 ) ) ;
#33 = CARTESIAN_POINT ( 'NONE',  ( 3.061616997868383018E-17, 3.749399456654644020E-33, 0.000000000000000000 ) ) ;
#34 = PLANE ( 'NONE',  #42 ) ;
#35 = CC_DESIGN_DATE_AND_TIME_ASSIGNMENT ( #192, #195, ( #58 ) ) ;
#36 = COORDINATED_UNIVERSAL_TIME_OFFSET ( 1, 0, .AHEAD. ) ;
#37 = FACE_OUTER_BOUND ( 'NONE', #67, .T. ) ;
#38 = CYLINDRICAL_SURFACE ( 'NONE', #198, 2.499999999999996003 ) ;
#39 = VERTEX_POINT ( 'NONE', #24 ) ;
#40 = DIRECTION ( 'NONE',  ( 1.000000000000000000, 1.224646799147353207E-16, -0.000000000000000000 ) ) ;
#41 = CARTESIAN_POINT ( 'NONE',  ( 3.061616997868383018E-17, 3.749399456654644020E-33, 0.000000000000000000 ) ) ;
#42 = AXIS2_PLACEMENT_3D ( 'NONE', #96, #145, #6 ) ;
#43 = CALENDAR_DATE ( 2023, 16, 2 ) ;
#44 = APPROVAL ( #106, 'UNSPECIFIED' ) ;
#45 = PERSON_AND_ORGANIZATION_ROLE ( 'design_supplier' ) ;
#46 = CLOSED_SHELL ( 'NONE', ( #167, #127, #140, #74 ) ) ;
#47 = FACE_OUTER_BOUND ( 'NONE', #32, .T. ) ;
#48 = DIRECTION ( 'NONE',  ( -1.224646799147353207E-16, 1.000000000000000000, 0.000000000000000000 ) ) ;
#49 = EDGE_LOOP ( 'NONE', ( #10 ) ) ;
#50 = AXIS2_PLACEMENT_3D ( 'NONE', #12, #20, #22 ) ;
#51 = CALENDAR_DATE ( 2023, 16, 2 ) ;
#52 = EDGE_LOOP ( 'NONE', ( #175 ) ) ;
#53 = MECHANICAL_CONTEXT ( 'NONE', #139, 'mechanical' ) ;
#54 = DIRECTION ( 'NONE',  ( 1.224646799147353207E-16, -1.000000000000000000, 0.000000000000000000 ) ) ;
#55 = LOCAL_TIME ( 10, 47, 35.00000000000000000, #25 ) ;
#56 = CIRCLE ( 'NONE', #79, 2.499999999999992895 ) ;
#57 = EDGE_CURVE ( 'NONE', #169, #169, #56, .T. ) ;
#58 = SECURITY_CLASSIFICATION ( '', '', #144 ) ;
#59 = DATE_AND_TIME ( #188, #9 ) ;
#60 = LOCAL_TIME ( 10, 47, 35.00000000000000000, #15 ) ;
#61 = PLANE ( 'NONE',  #160 ) ;
#62 = PERSON ( 'UNSPECIFIED', 'UNSPECIFIED', 'UNSPECIFIED', ('UNSPECIFIED'), ('UNSPECIFIED'), ('UNSPECIFIED') ) ;
#63 = CARTESIAN_POINT ( 'NONE',  ( 1.530808498934191509E-17, 1.874699728327322010E-33, 0.000000000000000000 ) ) ;
#64 = EDGE_CURVE ( 'NONE', #39, #39, #165, .T. ) ;
#65 = EDGE_LOOP ( 'NONE', ( #129 ) ) ;
#66 = ORIENTED_EDGE ( 'NONE', *, *, #150, .F. ) ;
#67 = EDGE_LOOP ( 'NONE', ( #77 ) ) ;
#68 = PRODUCT_RELATED_PRODUCT_CATEGORY ( 'detail', '', ( #125 ) ) ;
#69 = AXIS2_PLACEMENT_3D ( 'NONE', #63, #17, #143 ) ;
#70 = APPROVAL_ROLE ( '' ) ;
#71 = APPLICATION_CONTEXT ( 'configuration controlled 3d designs of mechanical parts and assemblies' ) ;
#72 = VERTEX_POINT ( 'NONE', #153 ) ;
#73 = AXIS2_PLACEMENT_3D ( 'NONE', #168, #13, #54 ) ;
#74 = ADVANCED_FACE ( 'NONE', ( #80 ), #61, .F. ) ;
#75 = APPROVAL_DATE_TIME ( #59, #31 ) ;
#76 = PERSON_AND_ORGANIZATION_ROLE ( 'creator' ) ;
#77 = ORIENTED_EDGE ( 'NONE', *, *, #57, .F. ) ;
#78 = DATE_AND_TIME ( #142, #173 ) ;
#79 = AXIS2_PLACEMENT_3D ( 'NONE', #115, #91, #157 ) ;
#80 = FACE_OUTER_BOUND ( 'NONE', #146, .T. ) ;
#81 = CC_DESIGN_DATE_AND_TIME_ASSIGNMENT ( #124, #190, ( #102 ) ) ;
#82 = DIRECTION ( 'NONE',  ( 1.000000000000000000, 1.224646799147353207E-16, -0.000000000000000000 ) ) ;
#83 = ADVANCED_BREP_SHAPE_REPRESENTATION ( '952294', ( #163, #89, #50 ), #184 ) ;
#84 = PERSON_AND_ORGANIZATION ( #62, #186 ) ;
#85 = CIRCLE ( 'NONE', #203, 0.2500000000000000000 ) ;
#86 = CARTESIAN_POINT ( 'NONE',  ( -50.00000000000000000, -6.123233995736766085E-15, 0.000000000000000000 ) ) ;
#87 = PERSON_AND_ORGANIZATION ( #62, #186 ) ;
#88 = CIRCLE ( 'NONE', #131, 1.999999999999999112 ) ;
#89 = MANIFOLD_SOLID_BREP ( 'Révolution2', #2 ) ;
#90 = AXIS2_PLACEMENT_3D ( 'NONE', #33, #182, #162 ) ;
#91 = DIRECTION ( 'NONE',  ( 1.000000000000000000, 1.224646799147353207E-16, -0.000000000000000000 ) ) ;
#92 = CC_DESIGN_PERSON_AND_ORGANIZATION_ASSIGNMENT ( #3, #177, ( #58 ) ) ;
#93 = FACE_OUTER_BOUND ( 'NONE', #65, .T. ) ;
#94 = ADVANCED_FACE ( 'NONE', ( #47, #176 ), #174, .T. ) ;
#95 = AXIS2_PLACEMENT_3D ( 'NONE', #183, #40, #104 ) ;
#96 = CARTESIAN_POINT ( 'NONE',  ( -2.249999999999984457, 1.874699728327316262E-32, 0.000000000000000000 ) ) ;
#97 = SHAPE_DEFINITION_REPRESENTATION ( #141, #83 ) ;
#98 = ORIENTED_EDGE ( 'NONE', *, *, #57, .T. ) ;
#99 = EDGE_LOOP ( 'NONE', ( #117 ) ) ;
#100 = PLANE ( 'NONE',  #73 ) ;
#101 = CARTESIAN_POINT ( 'NONE',  ( 0.000000000000000000, 0.2500000000000000000, 0.000000000000000000 ) ) ;
#102 = PRODUCT_DEFINITION ( 'UNKNOWN', '', #109, #28 ) ;
#103 = DIRECTION ( 'NONE',  ( 1.000000000000000000, 1.224646799147353207E-16, -0.000000000000000000 ) ) ;
#104 = DIRECTION ( 'NONE',  ( -1.734723475976812025E-16, 1.000000000000000000, 0.000000000000000000 ) ) ;
#105 = CALENDAR_DATE ( 2023, 16, 2 ) ;
#106 = APPROVAL_STATUS ( 'not_yet_approved' ) ;
#107 = APPROVAL_PERSON_ORGANIZATION ( #136, #44, #156 ) ;
#108 = CIRCLE ( 'NONE', #95, 2.499999999999992895 ) ;
#109 = PRODUCT_DEFINITION_FORMATION_WITH_SPECIFIED_SOURCE ( 'ANY', '', #125, .NOT_KNOWN. ) ;
#110 = ADVANCED_FACE ( 'NONE', ( #93 ), #158, .T. ) ;
#111 = CARTESIAN_POINT ( 'NONE',  ( -50.00000000000000000, 1.499759782661847755E-32, 0.000000000000000000 ) ) ;
#112 = EDGE_LOOP ( 'NONE', ( #66 ) ) ;
#113 = CC_DESIGN_SECURITY_CLASSIFICATION ( #58, ( #109 ) ) ;
#114 = CONICAL_SURFACE ( 'NONE', #8, 1.999999999999999112, 0.7853981633974473908 ) ;
#115 = CARTESIAN_POINT ( 'NONE',  ( -2.249999999999984013, -2.755455298081525549E-16, 0.000000000000000000 ) ) ;
#116 = COORDINATED_UNIVERSAL_TIME_OFFSET ( 1, 0, .AHEAD. ) ;
#117 = ORIENTED_EDGE ( 'NONE', *, *, #172, .F. ) ;
#118 = PERSON_AND_ORGANIZATION_ROLE ( 'design_owner' ) ;
#119 = CC_DESIGN_PERSON_AND_ORGANIZATION_ASSIGNMENT ( #30, #76, ( #102 ) ) ;
#120 = APPLICATION_PROTOCOL_DEFINITION ( 'international standard', 'config_control_design', 1994, #139 ) ;
#121 = VERTEX_POINT ( 'NONE', #197 ) ;
#122 = APPROVAL_PERSON_ORGANIZATION ( #84, #135, #126 ) ;
#123 = APPROVAL_DATE_TIME ( #138, #44 ) ;
#124 = DATE_AND_TIME ( #43, #55 ) ;
#125 = PRODUCT ( '952294', '952294', '', ( #53 ) ) ;
#126 = APPROVAL_ROLE ( '' ) ;
#127 = ADVANCED_FACE ( 'NONE', ( #178, #193 ), #38, .T. ) ;
#128 = DIRECTION ( 'NONE',  ( 1.000000000000000000, 1.224646799147353207E-16, -0.000000000000000000 ) ) ;
#129 = ORIENTED_EDGE ( 'NONE', *, *, #150, .T. ) ;
#130 = FACE_OUTER_BOUND ( 'NONE', #132, .T. ) ;
#131 = AXIS2_PLACEMENT_3D ( 'NONE', #86, #166, #185 ) ;
#132 = EDGE_LOOP ( 'NONE', ( #196 ) ) ;
#133 = ADVANCED_FACE ( 'NONE', ( #37 ), #34, .T. ) ;
#134 = COORDINATED_UNIVERSAL_TIME_OFFSET ( 1, 0, .AHEAD. ) ;
#135 = APPROVAL ( #161, 'UNSPECIFIED' ) ;
#136 = PERSON_AND_ORGANIZATION ( #62, #186 ) ;
#137 = CC_DESIGN_APPROVAL ( #31, ( #102 ) ) ;
#138 = DATE_AND_TIME ( #105, #60 ) ;
#139 = APPLICATION_CONTEXT ( 'configuration controlled 3d designs of mechanical parts and assemblies' ) ;
#140 = ADVANCED_FACE ( 'NONE', ( #130, #194 ), #114, .T. ) ;
#141 = PRODUCT_DEFINITION_SHAPE ( 'NONE', 'NONE',  #102 ) ;
#142 = CALENDAR_DATE ( 2023, 16, 2 ) ;
#143 = DIRECTION ( 'NONE',  ( -1.224646799147353207E-16, 1.000000000000000000, 0.000000000000000000 ) ) ;
#144 = SECURITY_CLASSIFICATION_LEVEL ( 'unclassified' ) ;
#145 = DIRECTION ( 'NONE',  ( -1.000000000000000000, -1.224646799147353207E-16, 0.000000000000000000 ) ) ;
#146 = EDGE_LOOP ( 'NONE', ( #148 ) ) ;
#147 = LOCAL_TIME ( 10, 47, 35.00000000000000000, #36 ) ;
#148 = ORIENTED_EDGE ( 'NONE', *, *, #179, .F. ) ;
#149 = FACE_OUTER_BOUND ( 'NONE', #52, .T. ) ;
#150 = EDGE_CURVE ( 'NONE', #151, #151, #85, .T. ) ;
#151 = VERTEX_POINT ( 'NONE', #101 ) ;
#152 = APPROVAL_STATUS ( 'not_yet_approved' ) ;
#153 = CARTESIAN_POINT ( 'NONE',  ( -50.00000000000000000, 1.999999999999993117, 0.000000000000000000 ) ) ;
#154 = CC_DESIGN_PERSON_AND_ORGANIZATION_ASSIGNMENT ( #200, #118, ( #125 ) ) ;
#155 = APPROVAL_PERSON_ORGANIZATION ( #87, #31, #70 ) ;
#156 = APPROVAL_ROLE ( '' ) ;
#157 = DIRECTION ( 'NONE',  ( -1.734723475976812025E-16, 1.000000000000000000, 0.000000000000000000 ) ) ;
#158 = PLANE ( 'NONE',  #69 ) ;
#159 = CC_DESIGN_PERSON_AND_ORGANIZATION_ASSIGNMENT ( #1, #45, ( #109 ) ) ;
#160 = AXIS2_PLACEMENT_3D ( 'NONE', #111, #128, #191 ) ;
#161 = APPROVAL_STATUS ( 'not_yet_approved' ) ;
#162 = DIRECTION ( 'NONE',  ( 1.224646799147353207E-16, -1.000000000000000000, 0.000000000000000000 ) ) ;
#163 = MANIFOLD_SOLID_BREP ( 'Révolution1', #46 ) ;
#164 = CARTESIAN_POINT ( 'NONE',  ( 0.000000000000000000, 0.000000000000000000, 0.000000000000000000 ) ) ;
#165 = CIRCLE ( 'NONE', #170, 2.499999999999998668 ) ;
#166 = DIRECTION ( 'NONE',  ( 1.000000000000000000, 1.224646799147353207E-16, -0.000000000000000000 ) ) ;
#167 = ADVANCED_FACE ( 'NONE', ( #149 ), #100, .F. ) ;
#168 = CARTESIAN_POINT ( 'NONE',  ( -2.249999999999984457, 1.874699728327316262E-32, 0.000000000000000000 ) ) ;
#169 = VERTEX_POINT ( 'NONE', #23 ) ;
#170 = AXIS2_PLACEMENT_3D ( 'NONE', #16, #82, #4 ) ;
#171 = PERSON_AND_ORGANIZATION ( #62, #186 ) ;
#172 = EDGE_CURVE ( 'NONE', #121, #121, #108, .T. ) ;
#173 = LOCAL_TIME ( 10, 47, 35.00000000000000000, #116 ) ;
#174 = CONICAL_SURFACE ( 'NONE', #90, 0.2500000000000000000, 0.7853981633974503884 ) ;
#175 = ORIENTED_EDGE ( 'NONE', *, *, #172, .T. ) ;
#176 = FACE_BOUND ( 'NONE', #112, .T. ) ;
#177 = PERSON_AND_ORGANIZATION_ROLE ( 'classification_officer' ) ;
#178 = FACE_OUTER_BOUND ( 'NONE', #99, .T. ) ;
#179 = EDGE_CURVE ( 'NONE', #72, #72, #88, .T. ) ;
#180 = APPROVAL_DATE_TIME ( #78, #135 ) ;
#181 = CARTESIAN_POINT ( 'NONE',  ( -50.00000000000000000, -6.123233995736766085E-15, 0.000000000000000000 ) ) ;
#182 = DIRECTION ( 'NONE',  ( -1.000000000000000000, -1.224646799147353207E-16, 0.000000000000000000 ) ) ;
#183 = CARTESIAN_POINT ( 'NONE',  ( -2.249999999999984013, -2.755455298081525549E-16, 0.000000000000000000 ) ) ;
#184 =( GEOMETRIC_REPRESENTATION_CONTEXT ( 3 ) GLOBAL_UNCERTAINTY_ASSIGNED_CONTEXT ( ( #29 ) ) GLOBAL_UNIT_ASSIGNED_CONTEXT ( ( #202, #11, #189 ) ) REPRESENTATION_CONTEXT ( 'NONE', 'WORKASPACE' ) );
#185 = DIRECTION ( 'NONE',  ( 0.000000000000000000, 1.000000000000000000, 0.000000000000000000 ) ) ;
#186 = ORGANIZATION ( 'UNSPECIFIED', 'UNSPECIFIED', '' ) ;
#187 = APPLICATION_PROTOCOL_DEFINITION ( 'international standard', 'config_control_design', 1994, #71 ) ;
#188 = CALENDAR_DATE ( 2023, 16, 2 ) ;
#189 =( NAMED_UNIT ( * ) SI_UNIT ( $, .STERADIAN. ) SOLID_ANGLE_UNIT ( ) );
#190 = DATE_TIME_ROLE ( 'creation_date' ) ;
#191 = DIRECTION ( 'NONE',  ( -1.224646799147353207E-16, 1.000000000000000000, 0.000000000000000000 ) ) ;
#192 = DATE_AND_TIME ( #51, #147 ) ;
#193 = FACE_OUTER_BOUND ( 'NONE', #18, .T. ) ;
#194 = FACE_BOUND ( 'NONE', #49, .T. ) ;
#195 = DATE_TIME_ROLE ( 'classification_date' ) ;
#196 = ORIENTED_EDGE ( 'NONE', *, *, #64, .F. ) ;
#197 = CARTESIAN_POINT ( 'NONE',  ( -2.249999999999984457, 2.499999999999992895, 0.000000000000000000 ) ) ;
#198 = AXIS2_PLACEMENT_3D ( 'NONE', #164, #19, #48 ) ;
#199 = CC_DESIGN_PERSON_AND_ORGANIZATION_ASSIGNMENT ( #171, #27, ( #109 ) ) ;
#200 = PERSON_AND_ORGANIZATION ( #62, #186 ) ;
#201 = DIRECTION ( 'NONE',  ( 0.000000000000000000, 1.000000000000000000, 0.000000000000000000 ) ) ;
#202 =( LENGTH_UNIT ( ) NAMED_UNIT ( * ) SI_UNIT ( .MILLI., .METRE. ) );
#203 = AXIS2_PLACEMENT_3D ( 'NONE', #41, #21, #14 ) ;
ENDSEC;
END-ISO-10303-21;
