ISO-10303-21;
HEADER;
FILE_DESCRIPTION (( 'STEP AP203' ),
    '1' );
FILE_NAME ('952213.step',
    '2021-11-30T06:45:05',
    ( '' ),
    ( '' ),
    'SwSTEP 2.0',
    'SolidWorks 2019',
    '' );
FILE_SCHEMA (( 'CONFIG_CONTROL_DESIGN' ));
ENDSEC;

DATA;
#1 = CARTESIAN_POINT ( 'NONE',  ( 6.284666409917640040E-14, -2.168404344971008868E-15, 18.00000000000000000 ) ) ;
#2 = CYLINDRICAL_SURFACE ( 'NONE', #258, 1.499999999999999112 ) ;
#3 = FACE_OUTER_BOUND ( 'NONE', #251, .T. ) ;
#4 = DATE_TIME_ROLE ( 'classification_date' ) ;
#5 = DIRECTION ( 'NONE',  ( -4.275831445896958607E-31, -1.000000000000000000, -1.224646799147353207E-16 ) ) ;
#6 = AXIS2_PLACEMENT_3D ( 'NONE', #9, #192, #143 ) ;
#7 = DIRECTION ( 'NONE',  ( -3.491481338843133355E-15, 1.224646799147353207E-16, -1.000000000000000000 ) ) ;
#8 = CARTESIAN_POINT ( 'NONE',  ( 1.735266225405037467E-13, -6.086494591762345225E-15, 49.70000000000000284 ) ) ;
#9 = CARTESIAN_POINT ( 'NONE',  ( 2.793185071074506684E-14, -9.797174393178825657E-16, 8.000000000000000000 ) ) ;
#10 = AXIS2_PLACEMENT_3D ( 'NONE', #81, #208, #29 ) ;
#11 = FACE_OUTER_BOUND ( 'NONE', #197, .T. ) ;
#12 = APPLICATION_PROTOCOL_DEFINITION ( 'international standard', 'config_control_design', 1994, #226 ) ;
#13 = AXIS2_PLACEMENT_3D ( 'NONE', #116, #281, #76 ) ;
#14 = AXIS2_PLACEMENT_3D ( 'NONE', #42, #162, #164 ) ;
#15 = EDGE_LOOP ( 'NONE', ( #18 ) ) ;
#16 = APPROVAL_STATUS ( 'not_yet_approved' ) ;
#17 = DIRECTION ( 'NONE',  ( 4.275831445896958607E-31, 1.000000000000000000, 1.224646799147353207E-16 ) ) ;
#18 = ORIENTED_EDGE ( 'NONE', *, *, #150, .T. ) ;
#19 = DATE_AND_TIME ( #220, #78 ) ;
#20 = CC_DESIGN_PERSON_AND_ORGANIZATION_ASSIGNMENT ( #40, #156, ( #56 ) ) ;
#21 = CLOSED_SHELL ( 'NONE', ( #107, #256, #97, #238 ) ) ;
#22 = FACE_OUTER_BOUND ( 'NONE', #236, .T. ) ;
#23 = CALENDAR_DATE ( 2021, 30, 11 ) ;
#24 = CIRCLE ( 'NONE', #253, 0.9449999999999996181 ) ;
#25 = APPROVAL_PERSON_ORGANIZATION ( #244, #179, #202 ) ;
#26 = ADVANCED_FACE ( 'NONE', ( #221, #22 ), #191, .F. ) ;
#27 = CARTESIAN_POINT ( 'NONE',  ( 0.0000000000000000000, 0.0000000000000000000, 0.0000000000000000000 ) ) ;
#28 = EDGE_CURVE ( 'NONE', #210, #210, #145, .T. ) ;
#29 = DIRECTION ( 'NONE',  ( 0.0000000000000000000, -1.000000000000000000, 0.0000000000000000000 ) ) ;
#30 = PLANE ( 'NONE',  #46 ) ;
#31 =( GEOMETRIC_REPRESENTATION_CONTEXT ( 3 ) GLOBAL_UNCERTAINTY_ASSIGNED_CONTEXT ( ( #184 ) ) GLOBAL_UNIT_ASSIGNED_CONTEXT ( ( #111, #173, #268 ) ) REPRESENTATION_CONTEXT ( 'NONE', 'WORKASPACE' ) );
#32 = PRODUCT_DEFINITION_FORMATION_WITH_SPECIFIED_SOURCE ( 'ANY', '', #63, .NOT_KNOWN. ) ;
#33 = CARTESIAN_POINT ( 'NONE',  ( 2.793185071074506684E-14, 1.098499999999998700, 8.000000000000000000 ) ) ;
#34 = DIRECTION ( 'NONE',  ( 0.0000000000000000000, 1.000000000000000000, 0.0000000000000000000 ) ) ;
#35 = ADVANCED_BREP_SHAPE_REPRESENTATION ( '952213', ( #103, #282, #14 ), #31 ) ;
#36 = CARTESIAN_POINT ( 'NONE',  ( 8.728703347107831416E-16, -3.061616997868382402E-17, 0.2499999999999999445 ) ) ;
#37 = CIRCLE ( 'NONE', #60, 1.200000000000001732 ) ;
#38 = VERTEX_POINT ( 'NONE', #65 ) ;
#39 = ORIENTED_EDGE ( 'NONE', *, *, #207, .T. ) ;
#40 = PERSON_AND_ORGANIZATION ( #206, #266 ) ;
#41 = EDGE_LOOP ( 'NONE', ( #67 ) ) ;
#42 = CARTESIAN_POINT ( 'NONE',  ( 0.0000000000000000000, 0.0000000000000000000, 0.0000000000000000000 ) ) ;
#43 = DIRECTION ( 'NONE',  ( 3.491481338843133355E-15, -1.224646799147353207E-16, 1.000000000000000000 ) ) ;
#44 = CARTESIAN_POINT ( 'NONE',  ( 1.745740669421566678E-13, 8.998558695971067645E-33, 50.00000000000000000 ) ) ;
#45 = CARTESIAN_POINT ( 'NONE',  ( 2.793185071074506684E-14, -9.797174393178825657E-16, 8.000000000000000000 ) ) ;
#46 = AXIS2_PLACEMENT_3D ( 'NONE', #198, #101, #5 ) ;
#47 = CC_DESIGN_APPROVAL ( #136, ( #285 ) ) ;
#48 = VERTEX_POINT ( 'NONE', #218 ) ;
#49 = EDGE_CURVE ( 'NONE', #79, #79, #37, .T. ) ;
#50 = DIRECTION ( 'NONE',  ( -3.491481338843133355E-15, 1.224646799147353207E-16, -1.000000000000000000 ) ) ;
#51 = ORIENTED_EDGE ( 'NONE', *, *, #54, .T. ) ;
#52 = CIRCLE ( 'NONE', #126, 0.9753844939755794696 ) ;
#53 = ORIENTED_EDGE ( 'NONE', *, *, #160, .T. ) ;
#54 = EDGE_CURVE ( 'NONE', #122, #122, #219, .T. ) ;
#55 = SHAPE_DEFINITION_REPRESENTATION ( #233, #35 ) ;
#56 = PRODUCT_DEFINITION ( 'UNKNOWN', '', #32, #110 ) ;
#57 = DIRECTION ( 'NONE',  ( -3.506472361196610321E-31, -1.000000000000000000, -9.869842262043748437E-17 ) ) ;
#58 = CARTESIAN_POINT ( 'NONE',  ( 1.745740669421566678E-13, -6.123233995736766085E-15, 50.00000000000000000 ) ) ;
#59 = CARTESIAN_POINT ( 'NONE',  ( 6.405924284287275164E-14, -2.246895775456749140E-15, 18.34729635533384595 ) ) ;
#60 = AXIS2_PLACEMENT_3D ( 'NONE', #275, #50, #137 ) ;
#61 = CARTESIAN_POINT ( 'NONE',  ( 0.0000000000000000000, 0.0000000000000000000, 0.0000000000000000000 ) ) ;
#62 = DIRECTION ( 'NONE',  ( 4.275831445896959482E-31, 1.000000000000000000, 1.224646799147353207E-16 ) ) ;
#63 = PRODUCT ( '952213', '952213', '', ( #113 ) ) ;
#64 = ORIENTED_EDGE ( 'NONE', *, *, #207, .F. ) ;
#65 = CARTESIAN_POINT ( 'NONE',  ( 0.0000000000000000000, 0.9541624327025943764, 0.0000000000000000000 ) ) ;
#66 = AXIS2_PLACEMENT_3D ( 'NONE', #1, #95, #295 ) ;
#67 = ORIENTED_EDGE ( 'NONE', *, *, #28, .T. ) ;
#68 = EDGE_LOOP ( 'NONE', ( #177 ) ) ;
#69 = CARTESIAN_POINT ( 'NONE',  ( 2.793185071074506684E-14, 1.098499999999998700, 8.000000000000000000 ) ) ;
#70 = DIRECTION ( 'NONE',  ( 0.0000000000000000000, 1.000000000000000000, 0.0000000000000000000 ) ) ;
#71 = CIRCLE ( 'NONE', #182, 1.098499999999998700 ) ;
#72 = CALENDAR_DATE ( 2021, 30, 11 ) ;
#73 = EDGE_LOOP ( 'NONE', ( #248 ) ) ;
#74 = PERSON_AND_ORGANIZATION_ROLE ( 'classification_officer' ) ;
#75 = ADVANCED_FACE ( 'NONE', ( #118, #168 ), #2, .T. ) ;
#76 = DIRECTION ( 'NONE',  ( 0.0000000000000000000, 1.000000000000000000, 0.0000000000000000000 ) ) ;
#77 = AXIS2_PLACEMENT_3D ( 'NONE', #212, #151, #287 ) ;
#78 = LOCAL_TIME ( 7, 45, 5.000000000000000000, #129 ) ;
#79 = VERTEX_POINT ( 'NONE', #169 ) ;
#80 = ADVANCED_FACE ( 'NONE', ( #270 ), #159, .F. ) ;
#81 = CARTESIAN_POINT ( 'NONE',  ( 7.444724609678507120E-14, -2.611257881388874960E-15, 21.32253873693978008 ) ) ;
#82 = VERTEX_POINT ( 'NONE', #89 ) ;
#83 = AXIS2_PLACEMENT_3D ( 'NONE', #58, #144, #34 ) ;
#84 = APPROVAL_PERSON_ORGANIZATION ( #141, #136, #186 ) ;
#85 = FACE_OUTER_BOUND ( 'NONE', #199, .T. ) ;
#86 = ORIENTED_EDGE ( 'NONE', *, *, #49, .F. ) ;
#87 = CARTESIAN_POINT ( 'NONE',  ( 2.886013015238226509E-14, -1.012277099146737952E-15, 8.265869798961828607 ) ) ;
#88 = ADVANCED_FACE ( 'NONE', ( #112 ), #246, .F. ) ;
#89 = CARTESIAN_POINT ( 'NONE',  ( 2.886013015238226509E-14, 0.9449999999999975087, 8.265869798961828607 ) ) ;
#90 = VERTEX_POINT ( 'NONE', #69 ) ;
#91 = EDGE_LOOP ( 'NONE', ( #128 ) ) ;
#92 = COORDINATED_UNIVERSAL_TIME_OFFSET ( 1, 0, .AHEAD. ) ;
#93 = DIRECTION ( 'NONE',  ( -3.491481338843133355E-15, 1.224646799147353207E-16, -1.000000000000000000 ) ) ;
#94 = EDGE_CURVE ( 'NONE', #82, #82, #187, .T. ) ;
#95 = DIRECTION ( 'NONE',  ( -3.491481338843133355E-15, 1.224646799147353207E-16, -1.000000000000000000 ) ) ;
#96 = PERSON_AND_ORGANIZATION ( #206, #266 ) ;
#97 = ADVANCED_FACE ( 'NONE', ( #3, #148 ), #185, .T. ) ;
#98 = COORDINATED_UNIVERSAL_TIME_OFFSET ( 1, 0, .AHEAD. ) ;
#99 = AXIS2_PLACEMENT_3D ( 'NONE', #87, #234, #213 ) ;
#100 = FACE_BOUND ( 'NONE', #239, .T. ) ;
#101 = DIRECTION ( 'NONE',  ( 3.491481338843133355E-15, -1.224646799147353207E-16, 1.000000000000000000 ) ) ;
#102 = DIRECTION ( 'NONE',  ( 0.0000000000000000000, 1.000000000000000000, 0.0000000000000000000 ) ) ;
#103 = MANIFOLD_SOLID_BREP ( 'Corps-Déplacer/Copier1[1]', #229 ) ;
#104 = ADVANCED_FACE ( 'NONE', ( #125, #200 ), #131, .T. ) ;
#105 = CARTESIAN_POINT ( 'NONE',  ( 6.284666409917640040E-14, -2.204364238465235428E-15, 18.00000000000000000 ) ) ;
#106 = LOCAL_TIME ( 7, 45, 5.000000000000000000, #92 ) ;
#107 = ADVANCED_FACE ( 'NONE', ( #292 ), #30, .F. ) ;
#108 = PLANE ( 'NONE',  #214 ) ;
#109 = APPROVAL_STATUS ( 'not_yet_approved' ) ;
#110 = DESIGN_CONTEXT ( 'detailed design', #226, 'design' ) ;
#111 =( LENGTH_UNIT ( ) NAMED_UNIT ( * ) SI_UNIT ( .MILLI., .METRE. ) );
#112 = FACE_OUTER_BOUND ( 'NONE', #153, .T. ) ;
#113 = MECHANICAL_CONTEXT ( 'NONE', #230, 'mechanical' ) ;
#114 = DATE_TIME_ROLE ( 'creation_date' ) ;
#115 = CONICAL_SURFACE ( 'NONE', #176, 1.098499999999998700, 0.5235987755982925984 ) ;
#116 = CARTESIAN_POINT ( 'NONE',  ( 7.444724609678507120E-14, -2.611257881388874960E-15, 21.32253873693978008 ) ) ;
#117 = DATE_AND_TIME ( #280, #132 ) ;
#118 = FACE_OUTER_BOUND ( 'NONE', #73, .T. ) ;
#119 = DIRECTION ( 'NONE',  ( -3.491481338843133355E-15, 1.224646799147353207E-16, -1.000000000000000000 ) ) ;
#120 = FACE_OUTER_BOUND ( 'NONE', #298, .T. ) ;
#121 = CARTESIAN_POINT ( 'NONE',  ( -4.079837734243294007E-31, 1.431014442694152620E-32, -1.168511969075884080E-16 ) ) ;
#122 = VERTEX_POINT ( 'NONE', #194 ) ;
#123 = DIRECTION ( 'NONE',  ( -3.491481338843133355E-15, 1.224646799147353207E-16, -1.000000000000000000 ) ) ;
#124 = CC_DESIGN_DATE_AND_TIME_ASSIGNMENT ( #19, #114, ( #56 ) ) ;
#125 = FACE_OUTER_BOUND ( 'NONE', #183, .T. ) ;
#126 = AXIS2_PLACEMENT_3D ( 'NONE', #59, #232, #235 ) ;
#127 = ORIENTED_EDGE ( 'NONE', *, *, #28, .F. ) ;
#128 = ORIENTED_EDGE ( 'NONE', *, *, #216, .T. ) ;
#129 = COORDINATED_UNIVERSAL_TIME_OFFSET ( 1, 0, .AHEAD. ) ;
#130 = APPLICATION_PROTOCOL_DEFINITION ( 'international standard', 'config_control_design', 1994, #230 ) ;
#131 = CONICAL_SURFACE ( 'NONE', #99, 0.9449999999999985079, 0.5235987755982922653 ) ;
#132 = LOCAL_TIME ( 7, 45, 5.000000000000000000, #225 ) ;
#133 = DIRECTION ( 'NONE',  ( -3.491481338843133355E-15, 1.224646799147353207E-16, -1.000000000000000000 ) ) ;
#134 = APPROVAL_DATE_TIME ( #299, #179 ) ;
#135 = APPROVAL_DATE_TIME ( #294, #261 ) ;
#136 = APPROVAL ( #138, 'UNSPECIFIED' ) ;
#137 = DIRECTION ( 'NONE',  ( 0.0000000000000000000, 1.000000000000000000, 0.0000000000000000000 ) ) ;
#138 = APPROVAL_STATUS ( 'not_yet_approved' ) ;
#139 = CC_DESIGN_APPROVAL ( #179, ( #56 ) ) ;
#140 = EDGE_LOOP ( 'NONE', ( #53 ) ) ;
#141 = PERSON_AND_ORGANIZATION ( #206, #266 ) ;
#142 = AXIS2_PLACEMENT_3D ( 'NONE', #45, #93, #70 ) ;
#143 = DIRECTION ( 'NONE',  ( 0.0000000000000000000, 1.000000000000000000, 0.0000000000000000000 ) ) ;
#144 = DIRECTION ( 'NONE',  ( -3.491481338843133355E-15, 1.224646799147353207E-16, -1.000000000000000000 ) ) ;
#145 = CIRCLE ( 'NONE', #142, 1.098499999999999810 ) ;
#146 = FACE_OUTER_BOUND ( 'NONE', #279, .T. ) ;
#147 = LOCAL_TIME ( 7, 45, 5.000000000000000000, #98 ) ;
#148 = FACE_OUTER_BOUND ( 'NONE', #41, .T. ) ;
#149 = FACE_OUTER_BOUND ( 'NONE', #276, .T. ) ;
#150 = EDGE_CURVE ( 'NONE', #38, #38, #264, .T. ) ;
#151 = DIRECTION ( 'NONE',  ( -3.491481338843133355E-15, 1.224646799147353207E-16, -1.000000000000000000 ) ) ;
#152 = DIRECTION ( 'NONE',  ( 3.491481338843133355E-15, -1.224646799147353207E-16, 1.000000000000000000 ) ) ;
#153 = EDGE_LOOP ( 'NONE', ( #86 ) ) ;
#154 = CARTESIAN_POINT ( 'NONE',  ( 6.284666409917640040E-14, 0.9449999999999975087, 18.00000000000000000 ) ) ;
#155 = CIRCLE ( 'NONE', #205, 1.500000000000001554 ) ;
#156 = PERSON_AND_ORGANIZATION_ROLE ( 'creator' ) ;
#157 = ORIENTED_EDGE ( 'NONE', *, *, #283, .T. ) ;
#158 = VERTEX_POINT ( 'NONE', #272 ) ;
#159 = PLANE ( 'NONE',  #284 ) ;
#160 = EDGE_CURVE ( 'NONE', #48, #48, #155, .T. ) ;
#161 = ORIENTED_EDGE ( 'NONE', *, *, #94, .F. ) ;
#162 = DIRECTION ( 'NONE',  ( 0.0000000000000000000, 0.0000000000000000000, 1.000000000000000000 ) ) ;
#163 = CC_DESIGN_SECURITY_CLASSIFICATION ( #285, ( #32 ) ) ;
#164 = DIRECTION ( 'NONE',  ( 1.000000000000000000, 0.0000000000000000000, 0.0000000000000000000 ) ) ;
#165 = CC_DESIGN_PERSON_AND_ORGANIZATION_ASSIGNMENT ( #96, #74, ( #285 ) ) ;
#166 = ORIENTED_EDGE ( 'NONE', *, *, #216, .F. ) ;
#167 = DATE_AND_TIME ( #23, #147 ) ;
#168 = FACE_OUTER_BOUND ( 'NONE', #140, .T. ) ;
#169 = CARTESIAN_POINT ( 'NONE',  ( 1.745740669421566678E-13, 1.199999999999995515, 50.00000000000000000 ) ) ;
#170 = DIRECTION ( 'NONE',  ( 3.506472361196610321E-31, 1.000000000000000000, 9.869842262043748437E-17 ) ) ;
#171 = DIRECTION ( 'NONE',  ( -3.491481338843133355E-15, 1.224646799147353207E-16, -1.000000000000000000 ) ) ;
#172 = DIRECTION ( 'NONE',  ( -3.491481338843133355E-15, 1.224646799147353207E-16, -1.000000000000000000 ) ) ;
#173 =( NAMED_UNIT ( * ) PLANE_ANGLE_UNIT ( ) SI_UNIT ( $, .RADIAN. ) );
#174 = EDGE_LOOP ( 'NONE', ( #39 ) ) ;
#175 = VERTEX_POINT ( 'NONE', #201 ) ;
#176 = AXIS2_PLACEMENT_3D ( 'NONE', #36, #293, #57 ) ;
#177 = ORIENTED_EDGE ( 'NONE', *, *, #94, .T. ) ;
#178 = ORIENTED_EDGE ( 'NONE', *, *, #283, .F. ) ;
#179 = APPROVAL ( #16, 'UNSPECIFIED' ) ;
#180 = CALENDAR_DATE ( 2021, 30, 11 ) ;
#181 = DIRECTION ( 'NONE',  ( -4.275831445896958607E-31, -1.000000000000000000, -1.224646799147353207E-16 ) ) ;
#182 = AXIS2_PLACEMENT_3D ( 'NONE', #254, #172, #170 ) ;
#183 = EDGE_LOOP ( 'NONE', ( #166 ) ) ;
#184 = UNCERTAINTY_MEASURE_WITH_UNIT (LENGTH_MEASURE( 1.000000000000000082E-05 ), #111, 'distance_accuracy_value', 'NONE');
#185 = CYLINDRICAL_SURFACE ( 'NONE', #302, 1.098499999999999144 ) ;
#186 = APPROVAL_ROLE ( '' ) ;
#187 = CIRCLE ( 'NONE', #77, 0.9449999999999985079 ) ;
#188 = LOCAL_TIME ( 7, 45, 5.000000000000000000, #203 ) ;
#189 = ADVANCED_FACE ( 'NONE', ( #149, #100 ), #273, .T. ) ;
#190 = ADVANCED_FACE ( 'NONE', ( #120, #215 ), #209, .T. ) ;
#191 = TOROIDAL_SURFACE ( 'NONE', #66, 2.944999999999999840, 2.000000000000000888 ) ;
#192 = DIRECTION ( 'NONE',  ( -3.491481338843133355E-15, 1.224646799147353207E-16, -1.000000000000000000 ) ) ;
#193 = DIRECTION ( 'NONE',  ( 4.275831445896959482E-31, 1.000000000000000000, 1.224646799147353207E-16 ) ) ;
#194 = CARTESIAN_POINT ( 'NONE',  ( 7.444724609678507120E-14, 1.499999999999994005, 21.32253873693978008 ) ) ;
#195 = AXIS2_PLACEMENT_3D ( 'NONE', #121, #237, #193 ) ;
#196 = CONICAL_SURFACE ( 'NONE', #10, 1.499999999999996669, 0.1745329251994265085 ) ;
#197 = EDGE_LOOP ( 'NONE', ( #127 ) ) ;
#198 = CARTESIAN_POINT ( 'NONE',  ( -2.039918867121647004E-31, 7.155072213470763102E-33, -5.842559845379420402E-17 ) ) ;
#199 = EDGE_LOOP ( 'NONE', ( #51 ) ) ;
#200 = FACE_BOUND ( 'NONE', #68, .T. ) ;
#201 = CARTESIAN_POINT ( 'NONE',  ( 8.728703347107835360E-16, 1.098499999999998700, 0.2500000000000000555 ) ) ;
#202 = APPROVAL_ROLE ( '' ) ;
#203 = COORDINATED_UNIVERSAL_TIME_OFFSET ( 1, 0, .AHEAD. ) ;
#204 = DIRECTION ( 'NONE',  ( 4.275831445896958607E-31, 1.000000000000000000, 1.224646799147353454E-16 ) ) ;
#205 = AXIS2_PLACEMENT_3D ( 'NONE', #8, #255, #102 ) ;
#206 = PERSON ( 'UNSPECIFIED', 'UNSPECIFIED', 'UNSPECIFIED', ('UNSPECIFIED'), ('UNSPECIFIED'), ('UNSPECIFIED') ) ;
#207 = EDGE_CURVE ( 'NONE', #297, #297, #24, .T. ) ;
#208 = DIRECTION ( 'NONE',  ( 3.491481338843133355E-15, -1.224646799147353207E-16, 1.000000000000000000 ) ) ;
#209 = CYLINDRICAL_SURFACE ( 'NONE', #250, 0.9449999999999990630 ) ;
#210 = VERTEX_POINT ( 'NONE', #33 ) ;
#211 = ORIENTED_EDGE ( 'NONE', *, *, #228, .F. ) ;
#212 = CARTESIAN_POINT ( 'NONE',  ( 2.886013015238226509E-14, -1.012277099146737952E-15, 8.265869798961828607 ) ) ;
#213 = DIRECTION ( 'NONE',  ( 0.0000000000000000000, 1.000000000000000000, 0.0000000000000000000 ) ) ;
#214 = AXIS2_PLACEMENT_3D ( 'NONE', #257, #152, #289 ) ;
#215 = FACE_OUTER_BOUND ( 'NONE', #174, .T. ) ;
#216 = EDGE_CURVE ( 'NONE', #90, #90, #242, .T. ) ;
#217 = PERSON_AND_ORGANIZATION_ROLE ( 'design_supplier' ) ;
#218 = CARTESIAN_POINT ( 'NONE',  ( 1.735266225405037467E-13, 1.499999999999995559, 49.70000000000000284 ) ) ;
#219 = CIRCLE ( 'NONE', #13, 1.499999999999996669 ) ;
#220 = CALENDAR_DATE ( 2021, 30, 11 ) ;
#221 = FACE_OUTER_BOUND ( 'NONE', #271, .T. ) ;
#222 = SECURITY_CLASSIFICATION_LEVEL ( 'unclassified' ) ;
#223 = AXIS2_PLACEMENT_3D ( 'NONE', #44, #133, #17 ) ;
#224 = ADVANCED_FACE ( 'NONE', ( #286, #85 ), #196, .T. ) ;
#225 = COORDINATED_UNIVERSAL_TIME_OFFSET ( 1, 0, .AHEAD. ) ;
#226 = APPLICATION_CONTEXT ( 'configuration controlled 3d designs of mechanical parts and assemblies' ) ;
#227 = ORIENTED_EDGE ( 'NONE', *, *, #160, .F. ) ;
#228 = EDGE_CURVE ( 'NONE', #175, #175, #71, .T. ) ;
#229 = CLOSED_SHELL ( 'NONE', ( #80, #104, #190, #26, #224, #75, #189, #88 ) ) ;
#230 = APPLICATION_CONTEXT ( 'configuration controlled 3d designs of mechanical parts and assemblies' ) ;
#231 = PRODUCT_RELATED_PRODUCT_CATEGORY ( 'detail', '', ( #63 ) ) ;
#232 = DIRECTION ( 'NONE',  ( -3.491481338843133355E-15, 1.224646799147353207E-16, -1.000000000000000000 ) ) ;
#233 = PRODUCT_DEFINITION_SHAPE ( 'NONE', 'NONE',  #56 ) ;
#234 = DIRECTION ( 'NONE',  ( -3.491481338843133355E-15, 1.224646799147353207E-16, -1.000000000000000000 ) ) ;
#235 = DIRECTION ( 'NONE',  ( 0.0000000000000000000, 1.000000000000000000, 0.0000000000000000000 ) ) ;
#236 = EDGE_LOOP ( 'NONE', ( #157 ) ) ;
#237 = DIRECTION ( 'NONE',  ( -3.491481338843133355E-15, 1.224646799147353207E-16, -1.000000000000000000 ) ) ;
#238 = ADVANCED_FACE ( 'NONE', ( #11 ), #108, .T. ) ;
#239 = EDGE_LOOP ( 'NONE', ( #265 ) ) ;
#240 = FACE_BOUND ( 'NONE', #267, .T. ) ;
#241 = CC_DESIGN_DATE_AND_TIME_ASSIGNMENT ( #167, #4, ( #285 ) ) ;
#242 = CIRCLE ( 'NONE', #6, 1.098499999999999810 ) ;
#243 = PERSON_AND_ORGANIZATION ( #206, #266 ) ;
#244 = PERSON_AND_ORGANIZATION ( #206, #266 ) ;
#245 = CARTESIAN_POINT ( 'NONE',  ( 2.793185071074506684E-14, 8.237430606270235860E-33, 8.000000000000000000 ) ) ;
#246 = PLANE ( 'NONE',  #223 ) ;
#247 = ORIENTED_EDGE ( 'NONE', *, *, #150, .F. ) ;
#248 = ORIENTED_EDGE ( 'NONE', *, *, #54, .F. ) ;
#249 = PERSON_AND_ORGANIZATION_ROLE ( 'design_owner' ) ;
#250 = AXIS2_PLACEMENT_3D ( 'NONE', #61, #123, #62 ) ;
#251 = EDGE_LOOP ( 'NONE', ( #211 ) ) ;
#252 = CC_DESIGN_APPROVAL ( #261, ( #32 ) ) ;
#253 = AXIS2_PLACEMENT_3D ( 'NONE', #105, #7, #288 ) ;
#254 = CARTESIAN_POINT ( 'NONE',  ( 8.728703347107831416E-16, -3.061616997868382402E-17, 0.2499999999999999445 ) ) ;
#255 = DIRECTION ( 'NONE',  ( -3.491481338843133355E-15, 1.224646799147353207E-16, -1.000000000000000000 ) ) ;
#256 = ADVANCED_FACE ( 'NONE', ( #240, #146 ), #115, .T. ) ;
#257 = CARTESIAN_POINT ( 'NONE',  ( 2.793185071074506684E-14, 8.237430606270235860E-33, 8.000000000000000000 ) ) ;
#258 = AXIS2_PLACEMENT_3D ( 'NONE', #27, #119, #204 ) ;
#259 = CARTESIAN_POINT ( 'NONE',  ( 0.0000000000000000000, 0.0000000000000000000, 0.0000000000000000000 ) ) ;
#260 = DIRECTION ( 'NONE',  ( 4.275831445896959482E-31, 1.000000000000000000, 1.224646799147353207E-16 ) ) ;
#261 = APPROVAL ( #109, 'UNSPECIFIED' ) ;
#262 = ORIENTED_EDGE ( 'NONE', *, *, #228, .T. ) ;
#263 = PERSON_AND_ORGANIZATION_ROLE ( 'creator' ) ;
#264 = CIRCLE ( 'NONE', #195, 0.9541624327025943764 ) ;
#265 = ORIENTED_EDGE ( 'NONE', *, *, #49, .T. ) ;
#266 = ORGANIZATION ( 'UNSPECIFIED', 'UNSPECIFIED', '' ) ;
#267 = EDGE_LOOP ( 'NONE', ( #247 ) ) ;
#268 =( NAMED_UNIT ( * ) SI_UNIT ( $, .STERADIAN. ) SOLID_ANGLE_UNIT ( ) );
#269 = PERSON_AND_ORGANIZATION ( #206, #266 ) ;
#270 = FACE_OUTER_BOUND ( 'NONE', #91, .T. ) ;
#271 = EDGE_LOOP ( 'NONE', ( #64 ) ) ;
#272 = CARTESIAN_POINT ( 'NONE',  ( 6.405924284287275164E-14, 0.9753844939755771382, 18.34729635533384595 ) ) ;
#273 = CONICAL_SURFACE ( 'NONE', #83, 1.200000000000001732, 0.7853981633974453924 ) ;
#274 = APPROVAL_ROLE ( '' ) ;
#275 = CARTESIAN_POINT ( 'NONE',  ( 1.745740669421566678E-13, -6.123233995736766085E-15, 50.00000000000000000 ) ) ;
#276 = EDGE_LOOP ( 'NONE', ( #227 ) ) ;
#277 = CC_DESIGN_PERSON_AND_ORGANIZATION_ASSIGNMENT ( #303, #263, ( #32 ) ) ;
#278 = APPROVAL_DATE_TIME ( #117, #136 ) ;
#279 = EDGE_LOOP ( 'NONE', ( #262 ) ) ;
#280 = CALENDAR_DATE ( 2021, 30, 11 ) ;
#281 = DIRECTION ( 'NONE',  ( -3.491481338843133355E-15, 1.224646799147353207E-16, -1.000000000000000000 ) ) ;
#282 = MANIFOLD_SOLID_BREP ( 'Corps-Déplacer/Copier1[2]', #21 ) ;
#283 = EDGE_CURVE ( 'NONE', #158, #158, #52, .T. ) ;
#284 = AXIS2_PLACEMENT_3D ( 'NONE', #245, #43, #181 ) ;
#285 = SECURITY_CLASSIFICATION ( '', '', #222 ) ;
#286 = FACE_BOUND ( 'NONE', #296, .T. ) ;
#287 = DIRECTION ( 'NONE',  ( 0.0000000000000000000, 1.000000000000000000, 0.0000000000000000000 ) ) ;
#288 = DIRECTION ( 'NONE',  ( 0.0000000000000000000, 1.000000000000000000, 0.0000000000000000000 ) ) ;
#289 = DIRECTION ( 'NONE',  ( -4.275831445896958607E-31, -1.000000000000000000, -1.224646799147353207E-16 ) ) ;
#290 = APPROVAL_PERSON_ORGANIZATION ( #300, #261, #274 ) ;
#291 = CC_DESIGN_PERSON_AND_ORGANIZATION_ASSIGNMENT ( #269, #249, ( #63 ) ) ;
#292 = FACE_OUTER_BOUND ( 'NONE', #15, .T. ) ;
#293 = DIRECTION ( 'NONE',  ( 3.491481338843133355E-15, -1.224646799147353207E-16, 1.000000000000000000 ) ) ;
#294 = DATE_AND_TIME ( #72, #106 ) ;
#295 = DIRECTION ( 'NONE',  ( 4.275831445896958607E-31, 1.000000000000000000, 1.224646799147353207E-16 ) ) ;
#296 = EDGE_LOOP ( 'NONE', ( #178 ) ) ;
#297 = VERTEX_POINT ( 'NONE', #154 ) ;
#298 = EDGE_LOOP ( 'NONE', ( #161 ) ) ;
#299 = DATE_AND_TIME ( #180, #188 ) ;
#300 = PERSON_AND_ORGANIZATION ( #206, #266 ) ;
#301 = CC_DESIGN_PERSON_AND_ORGANIZATION_ASSIGNMENT ( #243, #217, ( #32 ) ) ;
#302 = AXIS2_PLACEMENT_3D ( 'NONE', #259, #171, #260 ) ;
#303 = PERSON_AND_ORGANIZATION ( #206, #266 ) ;
ENDSEC;
END-ISO-10303-21;
