ISO-10303-21;
HEADER;
FILE_DESCRIPTION (( 'STEP AP203' ),
    '1' );
FILE_NAME ('952191.step',
    '2021-11-01T12:23:53',
    ( '' ),
    ( '' ),
    'SwSTEP 2.0',
    'SolidWorks 2019',
    '' );
FILE_SCHEMA (( 'CONFIG_CONTROL_DESIGN' ));
ENDSEC;

DATA;
#1 = CARTESIAN_POINT ( 'NONE',  ( -6.413731847436034514E-31, 0.0000000000000000000, -1.836965810494968570E-16 ) ) ;
#2 = AXIS2_PLACEMENT_3D ( 'NONE', #25, #203, #105 ) ;
#3 = CARTESIAN_POINT ( 'NONE',  ( 1.466422162314116325E-14, 1.124819836996387048E-32, 4.200000000000000178 ) ) ;
#4 = APPROVAL_PERSON_ORGANIZATION ( #111, #10, #213 ) ;
#5 = CARTESIAN_POINT ( 'NONE',  ( 1.466422162314116009E-14, 0.0000000000000000000, 4.200000000000000178 ) ) ;
#6 = APPLICATION_PROTOCOL_DEFINITION ( 'international standard', 'config_control_design', 1994, #26 ) ;
#7 = VERTEX_POINT ( 'NONE', #147 ) ;
#8 = EDGE_LOOP ( 'NONE', ( #168 ) ) ;
#9 = COORDINATED_UNIVERSAL_TIME_OFFSET ( 1, 0, .AHEAD. ) ;
#10 = APPROVAL ( #83, 'UNSPECIFIED' ) ;
#11 = ORIENTED_EDGE ( 'NONE', *, *, #87, .T. ) ;
#12 = AXIS2_PLACEMENT_3D ( 'NONE', #157, #30, #144 ) ;
#13 = DIRECTION ( 'NONE',  ( 0.0000000000000000000, -1.000000000000000000, 0.0000000000000000000 ) ) ;
#14 = PERSON ( 'UNSPECIFIED', 'UNSPECIFIED', 'UNSPECIFIED', ('UNSPECIFIED'), ('UNSPECIFIED'), ('UNSPECIFIED') ) ;
#15 = DIRECTION ( 'NONE',  ( -4.285855558155652404E-31, -1.000000000000000000, -1.227517819005651305E-16 ) ) ;
#16 = DIRECTION ( 'NONE',  ( 3.491481338843133355E-15, -1.224646799147353207E-16, 1.000000000000000000 ) ) ;
#17 = CC_DESIGN_PERSON_AND_ORGANIZATION_ASSIGNMENT ( #150, #62, ( #20 ) ) ;
#18 = DATE_TIME_ROLE ( 'creation_date' ) ;
#19 = VERTEX_POINT ( 'NONE', #152 ) ;
#20 = PRODUCT ( '952191', '952191', '', ( #127 ) ) ;
#21 = LOCAL_TIME ( 13, 23, 53.00000000000000000, #198 ) ;
#22 = DIRECTION ( 'NONE',  ( 0.0000000000000000000, 0.0000000000000000000, 1.000000000000000000 ) ) ;
#23 = SECURITY_CLASSIFICATION ( '', '', #135 ) ;
#24 = ORIENTED_EDGE ( 'NONE', *, *, #148, .F. ) ;
#25 = CARTESIAN_POINT ( 'NONE',  ( 1.326762908760390423E-13, 8.998558695971051224E-33, 38.00000000000000000 ) ) ;
#26 = APPLICATION_CONTEXT ( 'configuration controlled 3d designs of mechanical parts and assemblies' ) ;
#27 = EDGE_LOOP ( 'NONE', ( #207 ) ) ;
#28 = SHAPE_DEFINITION_REPRESENTATION ( #104, #129 ) ;
#29 = AXIS2_PLACEMENT_3D ( 'NONE', #74, #121, #116 ) ;
#30 = DIRECTION ( 'NONE',  ( -3.491481338843133355E-15, 1.224646799147353207E-16, -1.000000000000000000 ) ) ;
#31 = FACE_OUTER_BOUND ( 'NONE', #45, .T. ) ;
#32 = CARTESIAN_POINT ( 'NONE',  ( 0.0000000000000000000, 0.0000000000000000000, 0.0000000000000000000 ) ) ;
#33 = AXIS2_PLACEMENT_3D ( 'NONE', #32, #108, #178 ) ;
#34 = DIRECTION ( 'NONE',  ( 3.491481338843133355E-15, -1.224646799147353207E-16, 1.000000000000000000 ) ) ;
#35 = APPROVAL_ROLE ( '' ) ;
#36 = APPLICATION_PROTOCOL_DEFINITION ( 'international standard', 'config_control_design', 1994, #96 ) ;
#37 = APPROVAL ( #106, 'UNSPECIFIED' ) ;
#38 = CARTESIAN_POINT ( 'NONE',  ( 0.0000000000000000000, 0.0000000000000000000, 0.0000000000000000000 ) ) ;
#39 = AXIS2_PLACEMENT_3D ( 'NONE', #196, #16, #123 ) ;
#40 = CARTESIAN_POINT ( 'NONE',  ( 1.316288464743861212E-13, 1.499999999999992228, 37.69999999999999574 ) ) ;
#41 = APPROVAL_DATE_TIME ( #149, #37 ) ;
#42 = AXIS2_PLACEMENT_3D ( 'NONE', #38, #22, #60 ) ;
#43 = PERSON_AND_ORGANIZATION_ROLE ( 'classification_officer' ) ;
#44 = PERSON_AND_ORGANIZATION ( #14, #72 ) ;
#45 = EDGE_LOOP ( 'NONE', ( #120 ) ) ;
#46 = CC_DESIGN_PERSON_AND_ORGANIZATION_ASSIGNMENT ( #138, #151, ( #221 ) ) ;
#47 = APPROVAL_DATE_TIME ( #219, #73 ) ;
#48 = AXIS2_PLACEMENT_3D ( 'NONE', #177, #54, #13 ) ;
#49 = ORIENTED_EDGE ( 'NONE', *, *, #98, .T. ) ;
#50 = ORIENTED_EDGE ( 'NONE', *, *, #182, .F. ) ;
#51 = EDGE_CURVE ( 'NONE', #133, #133, #118, .T. ) ;
#52 = DIRECTION ( 'NONE',  ( -3.491481338843133355E-15, 1.224646799147353207E-16, -1.000000000000000000 ) ) ;
#53 = LOCAL_TIME ( 13, 23, 53.00000000000000000, #9 ) ;
#54 = DIRECTION ( 'NONE',  ( 3.491481338843133355E-15, -1.227517819005651059E-16, 1.000000000000000000 ) ) ;
#55 = ADVANCED_FACE ( 'NONE', ( #137 ), #188, .F. ) ;
#56 = FACE_OUTER_BOUND ( 'NONE', #67, .T. ) ;
#57 = MANIFOLD_SOLID_BREP ( 'Corps-Déplacer/Copier1[2]', #90 ) ;
#58 = DIRECTION ( 'NONE',  ( -4.275831445896958607E-31, -1.000000000000000000, -1.224646799147353207E-16 ) ) ;
#59 = APPROVAL_PERSON_ORGANIZATION ( #193, #37, #210 ) ;
#60 = DIRECTION ( 'NONE',  ( 1.000000000000000000, 0.0000000000000000000, 0.0000000000000000000 ) ) ;
#61 = FACE_OUTER_BOUND ( 'NONE', #139, .T. ) ;
#62 = PERSON_AND_ORGANIZATION_ROLE ( 'design_owner' ) ;
#63 = AXIS2_PLACEMENT_3D ( 'NONE', #1, #161, #15 ) ;
#64 = ADVANCED_FACE ( 'NONE', ( #171, #223 ), #68, .T. ) ;
#65 = DIRECTION ( 'NONE',  ( 3.491481338843133355E-15, -1.224646799147353207E-16, 1.000000000000000000 ) ) ;
#66 = PERSON_AND_ORGANIZATION_ROLE ( 'creator' ) ;
#67 = EDGE_LOOP ( 'NONE', ( #186 ) ) ;
#68 = CONICAL_SURFACE ( 'NONE', #12, 1.199999999999996403, 0.7853981633974461696 ) ;
#69 = PERSON_AND_ORGANIZATION_ROLE ( 'creator' ) ;
#70 = ORIENTED_EDGE ( 'NONE', *, *, #51, .T. ) ;
#71 = EDGE_LOOP ( 'NONE', ( #24 ) ) ;
#72 = ORGANIZATION ( 'UNSPECIFIED', 'UNSPECIFIED', '' ) ;
#73 = APPROVAL ( #136, 'UNSPECIFIED' ) ;
#74 = CARTESIAN_POINT ( 'NONE',  ( 2.683943307856137034E-14, -4.280500899552853497E-16, 7.687119154832528167 ) ) ;
#75 = CALENDAR_DATE ( 2021, 1, 11 ) ;
#76 = PLANE ( 'NONE',  #80 ) ;
#77 = ADVANCED_FACE ( 'NONE', ( #31 ), #176, .T. ) ;
#78 = DIRECTION ( 'NONE',  ( 0.0000000000000000000, 1.000000000000000000, 0.0000000000000000000 ) ) ;
#79 = ADVANCED_FACE ( 'NONE', ( #211 ), #76, .F. ) ;
#80 = AXIS2_PLACEMENT_3D ( 'NONE', #174, #34, #58 ) ;
#81 = VERTEX_POINT ( 'NONE', #82 ) ;
#82 = CARTESIAN_POINT ( 'NONE',  ( 1.326762908760390423E-13, 1.199999999999991962, 38.00000000000000000 ) ) ;
#83 = APPROVAL_STATUS ( 'not_yet_approved' ) ;
#84 = VERTEX_POINT ( 'NONE', #40 ) ;
#85 = AXIS2_PLACEMENT_3D ( 'NONE', #141, #125, #194 ) ;
#86 = DIRECTION ( 'NONE',  ( -4.349461053732323178E-31, -1.000000000000000000, -1.227517819005651059E-16 ) ) ;
#87 = EDGE_CURVE ( 'NONE', #19, #19, #160, .T. ) ;
#88 = CALENDAR_DATE ( 2021, 1, 11 ) ;
#89 = EDGE_LOOP ( 'NONE', ( #50 ) ) ;
#90 = CLOSED_SHELL ( 'NONE', ( #77, #155, #79 ) ) ;
#91 = EDGE_LOOP ( 'NONE', ( #189 ) ) ;
#92 = DATE_AND_TIME ( #201, #53 ) ;
#93 = APPROVAL_PERSON_ORGANIZATION ( #44, #73, #35 ) ;
#94 = CARTESIAN_POINT ( 'NONE',  ( 1.326762908760390423E-13, -4.653657836759941941E-15, 38.00000000000000000 ) ) ;
#95 = EDGE_CURVE ( 'NONE', #184, #184, #146, .T. ) ;
#96 = APPLICATION_CONTEXT ( 'configuration controlled 3d designs of mechanical parts and assemblies' ) ;
#97 = DIRECTION ( 'NONE',  ( 3.491481338843133355E-15, -1.227517819005651059E-16, 1.000000000000000000 ) ) ;
#98 = EDGE_CURVE ( 'NONE', #84, #84, #99, .T. ) ;
#99 = CIRCLE ( 'NONE', #130, 1.499999999999996669 ) ;
#100 = FACE_OUTER_BOUND ( 'NONE', #102, .T. ) ;
#101 = DIRECTION ( 'NONE',  ( 3.491481338843133355E-15, -1.227517819005651059E-16, 1.000000000000000000 ) ) ;
#102 = EDGE_LOOP ( 'NONE', ( #70 ) ) ;
#103 = EDGE_LOOP ( 'NONE', ( #49 ) ) ;
#104 = PRODUCT_DEFINITION_SHAPE ( 'NONE', 'NONE',  #217 ) ;
#105 = DIRECTION ( 'NONE',  ( 4.275831445896958607E-31, 1.000000000000000000, 1.224646799147353207E-16 ) ) ;
#106 = APPROVAL_STATUS ( 'not_yet_approved' ) ;
#107 = FACE_OUTER_BOUND ( 'NONE', #200, .T. ) ;
#108 = DIRECTION ( 'NONE',  ( -3.491481338843133355E-15, 1.224646799147353207E-16, -1.000000000000000000 ) ) ;
#109 = FACE_OUTER_BOUND ( 'NONE', #71, .T. ) ;
#110 = COORDINATED_UNIVERSAL_TIME_OFFSET ( 1, 0, .AHEAD. ) ;
#111 = PERSON_AND_ORGANIZATION ( #14, #72 ) ;
#112 = CC_DESIGN_PERSON_AND_ORGANIZATION_ASSIGNMENT ( #170, #69, ( #217 ) ) ;
#113 = CALENDAR_DATE ( 2021, 1, 11 ) ;
#114 = LOCAL_TIME ( 13, 23, 53.00000000000000000, #110 ) ;
#115 = PRODUCT_RELATED_PRODUCT_CATEGORY ( 'detail', '', ( #20 ) ) ;
#116 = DIRECTION ( 'NONE',  ( 0.0000000000000000000, 1.000000000000000000, 0.0000000000000000000 ) ) ;
#117 = UNCERTAINTY_MEASURE_WITH_UNIT (LENGTH_MEASURE( 1.000000000000000082E-05 ), #180, 'distance_accuracy_value', 'NONE');
#118 = CIRCLE ( 'NONE', #29, 1.499999999999994893 ) ;
#119 = CC_DESIGN_SECURITY_CLASSIFICATION ( #23, ( #221 ) ) ;
#120 = ORIENTED_EDGE ( 'NONE', *, *, #95, .T. ) ;
#121 = DIRECTION ( 'NONE',  ( -3.491481338843133355E-15, 1.227517819005651059E-16, -1.000000000000000000 ) ) ;
#122 = AXIS2_PLACEMENT_3D ( 'NONE', #3, #65, #131 ) ;
#123 = DIRECTION ( 'NONE',  ( -4.275831445896958607E-31, -1.000000000000000000, -1.224646799147353207E-16 ) ) ;
#124 = CARTESIAN_POINT ( 'NONE',  ( 1.466422162314116009E-14, -5.155574839823733756E-16, 4.200000000000000178 ) ) ;
#125 = DIRECTION ( 'NONE',  ( 3.491481338843133355E-15, -1.227517819005651059E-16, 1.000000000000000000 ) ) ;
#126 = CC_DESIGN_APPROVAL ( #37, ( #221 ) ) ;
#127 = MECHANICAL_CONTEXT ( 'NONE', #26, 'mechanical' ) ;
#128 =( NAMED_UNIT ( * ) PLANE_ANGLE_UNIT ( ) SI_UNIT ( $, .RADIAN. ) );
#129 = ADVANCED_BREP_SHAPE_REPRESENTATION ( '952191', ( #132, #57, #42 ), #167 ) ;
#130 = AXIS2_PLACEMENT_3D ( 'NONE', #208, #52, #162 ) ;
#131 = DIRECTION ( 'NONE',  ( -4.275831445896958607E-31, -1.000000000000000000, -1.224646799147353207E-16 ) ) ;
#132 = MANIFOLD_SOLID_BREP ( 'Corps-Déplacer/Copier1[1]', #191 ) ;
#133 = VERTEX_POINT ( 'NONE', #166 ) ;
#134 = COORDINATED_UNIVERSAL_TIME_OFFSET ( 1, 0, .AHEAD. ) ;
#135 = SECURITY_CLASSIFICATION_LEVEL ( 'unclassified' ) ;
#136 = APPROVAL_STATUS ( 'not_yet_approved' ) ;
#137 = FACE_OUTER_BOUND ( 'NONE', #89, .T. ) ;
#138 = PERSON_AND_ORGANIZATION ( #14, #72 ) ;
#139 = EDGE_LOOP ( 'NONE', ( #190 ) ) ;
#140 = CIRCLE ( 'NONE', #179, 0.6999999999999997335 ) ;
#141 = CARTESIAN_POINT ( 'NONE',  ( -3.000098890708956245E-31, -1.200148268103259221E-32, -8.592624733039554206E-17 ) ) ;
#142 = FACE_OUTER_BOUND ( 'NONE', #103, .T. ) ;
#143 = CC_DESIGN_DATE_AND_TIME_ASSIGNMENT ( #92, #169, ( #23 ) ) ;
#144 = DIRECTION ( 'NONE',  ( 0.0000000000000000000, 1.000000000000000000, 0.0000000000000000000 ) ) ;
#145 = FACE_OUTER_BOUND ( 'NONE', #202, .T. ) ;
#146 = CIRCLE ( 'NONE', #48, 0.6999999999999997335 ) ;
#147 = CARTESIAN_POINT ( 'NONE',  ( 1.466422162314116009E-14, -0.7000000000000002887, 4.200000000000000178 ) ) ;
#148 = EDGE_CURVE ( 'NONE', #7, #7, #140, .T. ) ;
#149 = DATE_AND_TIME ( #75, #185 ) ;
#150 = PERSON_AND_ORGANIZATION ( #14, #72 ) ;
#151 = PERSON_AND_ORGANIZATION_ROLE ( 'design_supplier' ) ;
#152 = CARTESIAN_POINT ( 'NONE',  ( -6.000197781417912489E-31, -0.6999999999999996225, -1.718524946607910841E-16 ) ) ;
#153 = CC_DESIGN_APPROVAL ( #10, ( #217 ) ) ;
#154 = ORIENTED_EDGE ( 'NONE', *, *, #95, .F. ) ;
#155 = ADVANCED_FACE ( 'NONE', ( #145, #107 ), #209, .T. ) ;
#156 = DIRECTION ( 'NONE',  ( 0.0000000000000000000, -1.000000000000000000, 0.0000000000000000000 ) ) ;
#157 = CARTESIAN_POINT ( 'NONE',  ( 1.326762908760390423E-13, -4.653657836759941941E-15, 38.00000000000000000 ) ) ;
#158 = DIRECTION ( 'NONE',  ( -3.491481338843133355E-15, 1.224646799147353207E-16, -1.000000000000000000 ) ) ;
#159 = CC_DESIGN_PERSON_AND_ORGANIZATION_ASSIGNMENT ( #187, #43, ( #23 ) ) ;
#160 = CIRCLE ( 'NONE', #85, 0.6999999999999996225 ) ;
#161 = DIRECTION ( 'NONE',  ( 3.491481338843133355E-15, -1.227517819005651059E-16, 1.000000000000000000 ) ) ;
#162 = DIRECTION ( 'NONE',  ( 0.0000000000000000000, 1.000000000000000000, 0.0000000000000000000 ) ) ;
#163 =( NAMED_UNIT ( * ) SI_UNIT ( $, .STERADIAN. ) SOLID_ANGLE_UNIT ( ) );
#164 = CC_DESIGN_PERSON_AND_ORGANIZATION_ASSIGNMENT ( #204, #66, ( #221 ) ) ;
#165 = CARTESIAN_POINT ( 'NONE',  ( 1.466422162314116009E-14, -0.7000000000000002887, 4.200000000000000178 ) ) ;
#166 = CARTESIAN_POINT ( 'NONE',  ( 2.683943307856137034E-14, 1.499999999999994449, 7.687119154832528167 ) ) ;
#167 =( GEOMETRIC_REPRESENTATION_CONTEXT ( 3 ) GLOBAL_UNCERTAINTY_ASSIGNED_CONTEXT ( ( #117 ) ) GLOBAL_UNIT_ASSIGNED_CONTEXT ( ( #180, #128, #163 ) ) REPRESENTATION_CONTEXT ( 'NONE', 'WORKASPACE' ) );
#168 = ORIENTED_EDGE ( 'NONE', *, *, #98, .F. ) ;
#169 = DATE_TIME_ROLE ( 'classification_date' ) ;
#170 = PERSON_AND_ORGANIZATION ( #14, #72 ) ;
#171 = FACE_OUTER_BOUND ( 'NONE', #8, .T. ) ;
#172 = DESIGN_CONTEXT ( 'detailed design', #96, 'design' ) ;
#173 = CC_DESIGN_DATE_AND_TIME_ASSIGNMENT ( #199, #18, ( #217 ) ) ;
#174 = CARTESIAN_POINT ( 'NONE',  ( -8.551680453529350800E-31, 2.999525725151307090E-32, -2.449298628175645296E-16 ) ) ;
#175 = CC_DESIGN_APPROVAL ( #73, ( #23 ) ) ;
#176 = PLANE ( 'NONE',  #39 ) ;
#177 = CARTESIAN_POINT ( 'NONE',  ( 1.466422162314116009E-14, -5.155574839823733756E-16, 4.200000000000000178 ) ) ;
#178 = DIRECTION ( 'NONE',  ( 4.275831445896958607E-31, 1.000000000000000000, 1.224646799147353207E-16 ) ) ;
#179 = AXIS2_PLACEMENT_3D ( 'NONE', #124, #97, #156 ) ;
#180 =( LENGTH_UNIT ( ) NAMED_UNIT ( * ) SI_UNIT ( .MILLI., .METRE. ) );
#181 = CALENDAR_DATE ( 2021, 1, 11 ) ;
#182 = EDGE_CURVE ( 'NONE', #81, #81, #214, .T. ) ;
#183 = DATE_AND_TIME ( #113, #21 ) ;
#184 = VERTEX_POINT ( 'NONE', #165 ) ;
#185 = LOCAL_TIME ( 13, 23, 53.00000000000000000, #222 ) ;
#186 = ORIENTED_EDGE ( 'NONE', *, *, #51, .F. ) ;
#187 = PERSON_AND_ORGANIZATION ( #14, #72 ) ;
#188 = PLANE ( 'NONE',  #2 ) ;
#189 = ORIENTED_EDGE ( 'NONE', *, *, #182, .T. ) ;
#190 = ORIENTED_EDGE ( 'NONE', *, *, #148, .T. ) ;
#191 = CLOSED_SHELL ( 'NONE', ( #192, #64, #55, #220, #216 ) ) ;
#192 = ADVANCED_FACE ( 'NONE', ( #142, #56 ), #195, .T. ) ;
#193 = PERSON_AND_ORGANIZATION ( #14, #72 ) ;
#194 = DIRECTION ( 'NONE',  ( -4.285855558155654155E-31, -1.000000000000000000, -1.227517819005651305E-16 ) ) ;
#195 = CYLINDRICAL_SURFACE ( 'NONE', #33, 1.499999999999994893 ) ;
#196 = CARTESIAN_POINT ( 'NONE',  ( 1.466422162314116325E-14, 1.124819836996387048E-32, 4.200000000000000178 ) ) ;
#197 = LOCAL_TIME ( 13, 23, 53.00000000000000000, #134 ) ;
#198 = COORDINATED_UNIVERSAL_TIME_OFFSET ( 1, 0, .AHEAD. ) ;
#199 = DATE_AND_TIME ( #88, #197 ) ;
#200 = EDGE_LOOP ( 'NONE', ( #154 ) ) ;
#201 = CALENDAR_DATE ( 2021, 1, 11 ) ;
#202 = EDGE_LOOP ( 'NONE', ( #11 ) ) ;
#203 = DIRECTION ( 'NONE',  ( -3.491481338843133355E-15, 1.224646799147353207E-16, -1.000000000000000000 ) ) ;
#204 = PERSON_AND_ORGANIZATION ( #14, #72 ) ;
#205 = APPROVAL_DATE_TIME ( #183, #10 ) ;
#206 = AXIS2_PLACEMENT_3D ( 'NONE', #94, #158, #78 ) ;
#207 = ORIENTED_EDGE ( 'NONE', *, *, #87, .F. ) ;
#208 = CARTESIAN_POINT ( 'NONE',  ( 1.316288464743861212E-13, -4.616918432785521081E-15, 37.69999999999999574 ) ) ;
#209 = CYLINDRICAL_SURFACE ( 'NONE', #63, 0.6999999999999996225 ) ;
#210 = APPROVAL_ROLE ( '' ) ;
#211 = FACE_OUTER_BOUND ( 'NONE', #27, .T. ) ;
#212 = AXIS2_PLACEMENT_3D ( 'NONE', #5, #101, #86 ) ;
#213 = APPROVAL_ROLE ( '' ) ;
#214 = CIRCLE ( 'NONE', #206, 1.199999999999996403 ) ;
#215 = PLANE ( 'NONE',  #122 ) ;
#216 = ADVANCED_FACE ( 'NONE', ( #109 ), #215, .F. ) ;
#217 = PRODUCT_DEFINITION ( 'UNKNOWN', '', #221, #172 ) ;
#218 = TOROIDAL_SURFACE ( 'NONE', #212, 8.699999999999999289, 8.000000000000000000 ) ;
#219 = DATE_AND_TIME ( #181, #114 ) ;
#220 = ADVANCED_FACE ( 'NONE', ( #61, #100 ), #218, .F. ) ;
#221 = PRODUCT_DEFINITION_FORMATION_WITH_SPECIFIED_SOURCE ( 'ANY', '', #20, .NOT_KNOWN. ) ;
#222 = COORDINATED_UNIVERSAL_TIME_OFFSET ( 1, 0, .AHEAD. ) ;
#223 = FACE_BOUND ( 'NONE', #91, .T. ) ;
ENDSEC;
END-ISO-10303-21;
