ISO-10303-21;
HEADER;
FILE_DESCRIPTION (( 'STEP AP203' ),
    '1' );
FILE_NAME ('952172.step',
    '2021-11-30T08:32:45',
    ( '' ),
    ( '' ),
    'SwSTEP 2.0',
    'SolidWorks 2019',
    '' );
FILE_SCHEMA (( 'CONFIG_CONTROL_DESIGN' ));
ENDSEC;

DATA;
#1 = FACE_OUTER_BOUND ( 'NONE', #74, .T. ) ;
#2 = CC_DESIGN_PERSON_AND_ORGANIZATION_ASSIGNMENT ( #112, #236, ( #294 ) ) ;
#3 = PLANE ( 'NONE',  #185 ) ;
#4 = PERSON_AND_ORGANIZATION ( #225, #224 ) ;
#5 = ORIENTED_EDGE ( 'NONE', *, *, #68, .T. ) ;
#6 = AXIS2_PLACEMENT_3D ( 'NONE', #66, #198, #62 ) ;
#7 = FACE_OUTER_BOUND ( 'NONE', #67, .T. ) ;
#8 = FACE_OUTER_BOUND ( 'NONE', #49, .T. ) ;
#9 = EDGE_LOOP ( 'NONE', ( #172 ) ) ;
#10 = DIRECTION ( 'NONE',  ( -3.491481338843133355E-15, 1.224646799147353207E-16, -1.000000000000000000 ) ) ;
#11 = CARTESIAN_POINT ( 'NONE',  ( 1.735266225405037467E-13, 1.499999999999995559, 49.70000000000000284 ) ) ;
#12 = AXIS2_PLACEMENT_3D ( 'NONE', #195, #257, #70 ) ;
#13 = ADVANCED_FACE ( 'NONE', ( #125, #76 ), #214, .T. ) ;
#14 = EDGE_CURVE ( 'NONE', #91, #91, #87, .T. ) ;
#15 = APPROVAL_PERSON_ORGANIZATION ( #20, #153, #302 ) ;
#16 = MECHANICAL_CONTEXT ( 'NONE', #233, 'mechanical' ) ;
#17 = EDGE_CURVE ( 'NONE', #262, #262, #28, .T. ) ;
#18 = DIRECTION ( 'NONE',  ( 0.0000000000000000000, 0.0000000000000000000, 1.000000000000000000 ) ) ;
#19 = EDGE_LOOP ( 'NONE', ( #45 ) ) ;
#20 = PERSON_AND_ORGANIZATION ( #225, #224 ) ;
#21 = CC_DESIGN_PERSON_AND_ORGANIZATION_ASSIGNMENT ( #300, #183, ( #146 ) ) ;
#22 = DIRECTION ( 'NONE',  ( 3.491481338843133355E-15, -1.224646799147353207E-16, 1.000000000000000000 ) ) ;
#23 = AXIS2_PLACEMENT_3D ( 'NONE', #65, #97, #259 ) ;
#24 = DIRECTION ( 'NONE',  ( -4.275831445896958607E-31, -1.000000000000000000, -1.224646799147353207E-16 ) ) ;
#25 = ORIENTED_EDGE ( 'NONE', *, *, #14, .T. ) ;
#26 = CARTESIAN_POINT ( 'NONE',  ( 2.444036937190193349E-14, 6.362730877942916587E-33, 7.000000000000000000 ) ) ;
#27 = DATE_TIME_ROLE ( 'classification_date' ) ;
#28 = CIRCLE ( 'NONE', #208, 1.500000000000001554 ) ;
#29 = APPLICATION_CONTEXT ( 'configuration controlled 3d designs of mechanical parts and assemblies' ) ;
#30 = CIRCLE ( 'NONE', #12, 0.7041624327025947094 ) ;
#31 = FACE_OUTER_BOUND ( 'NONE', #103, .T. ) ;
#32 = CARTESIAN_POINT ( 'NONE',  ( 0.0000000000000000000, 0.0000000000000000000, 0.0000000000000000000 ) ) ;
#33 = ORIENTED_EDGE ( 'NONE', *, *, #42, .F. ) ;
#34 = FACE_OUTER_BOUND ( 'NONE', #230, .T. ) ;
#35 = EDGE_LOOP ( 'NONE', ( #227 ) ) ;
#36 = CLOSED_SHELL ( 'NONE', ( #138, #121, #204, #178 ) ) ;
#37 = LOCAL_TIME ( 9, 32, 45.00000000000000000, #192 ) ;
#38 = APPROVAL_ROLE ( '' ) ;
#39 =( LENGTH_UNIT ( ) NAMED_UNIT ( * ) SI_UNIT ( .MILLI., .METRE. ) );
#40 = EDGE_LOOP ( 'NONE', ( #248 ) ) ;
#41 = AXIS2_PLACEMENT_3D ( 'NONE', #120, #44, #145 ) ;
#42 = EDGE_CURVE ( 'NONE', #51, #51, #207, .T. ) ;
#43 = DIRECTION ( 'NONE',  ( 0.0000000000000000000, 1.000000000000000000, 0.0000000000000000000 ) ) ;
#44 = DIRECTION ( 'NONE',  ( -3.491481338843133355E-15, 1.224646799147353207E-16, -1.000000000000000000 ) ) ;
#45 = ORIENTED_EDGE ( 'NONE', *, *, #72, .F. ) ;
#46 = FACE_OUTER_BOUND ( 'NONE', #240, .T. ) ;
#47 = ORIENTED_EDGE ( 'NONE', *, *, #14, .F. ) ;
#48 = DIRECTION ( 'NONE',  ( 3.491481338843133355E-15, -1.224646799147353207E-16, 1.000000000000000000 ) ) ;
#49 = EDGE_LOOP ( 'NONE', ( #179 ) ) ;
#50 = CC_DESIGN_PERSON_AND_ORGANIZATION_ASSIGNMENT ( #140, #235, ( #226 ) ) ;
#51 = VERTEX_POINT ( 'NONE', #293 ) ;
#52 = CARTESIAN_POINT ( 'NONE',  ( 5.707628016518647231E-14, -2.001966415627278450E-15, 16.34729635533384240 ) ) ;
#53 = COORDINATED_UNIVERSAL_TIME_OFFSET ( 1, 0, .AHEAD. ) ;
#54 = CARTESIAN_POINT ( 'NONE',  ( 2.444036937190193349E-14, 0.8484999999999991438, 7.000000000000000000 ) ) ;
#55 = DIRECTION ( 'NONE',  ( 0.0000000000000000000, 1.000000000000000000, 0.0000000000000000000 ) ) ;
#56 = CARTESIAN_POINT ( 'NONE',  ( -1.892735826383162232E-31, 0.7041624327025947094, -5.421010862427523403E-17 ) ) ;
#57 = CONICAL_SURFACE ( 'NONE', #111, 0.8484999999999999210, 0.5235987755983045888 ) ;
#58 = FACE_OUTER_BOUND ( 'NONE', #35, .T. ) ;
#59 = APPROVAL ( #151, 'UNSPECIFIED' ) ;
#60 = DIRECTION ( 'NONE',  ( 0.0000000000000000000, 1.000000000000000000, 0.0000000000000000000 ) ) ;
#61 = CIRCLE ( 'NONE', #158, 0.8484999999999999210 ) ;
#62 = DIRECTION ( 'NONE',  ( 4.275831445896958607E-31, 1.000000000000000000, 1.224646799147353207E-16 ) ) ;
#63 = COORDINATED_UNIVERSAL_TIME_OFFSET ( 1, 0, .AHEAD. ) ;
#64 = EDGE_LOOP ( 'NONE', ( #295 ) ) ;
#65 = CARTESIAN_POINT ( 'NONE',  ( 2.506627765991135921E-14, -8.792066668447524607E-16, 7.179267258583376332 ) ) ;
#66 = CARTESIAN_POINT ( 'NONE',  ( 1.745740669421566678E-13, 8.998558695971067645E-33, 50.00000000000000000 ) ) ;
#67 = EDGE_LOOP ( 'NONE', ( #25 ) ) ;
#68 = EDGE_CURVE ( 'NONE', #147, #147, #61, .T. ) ;
#69 = CC_DESIGN_SECURITY_CLASSIFICATION ( #294, ( #226 ) ) ;
#70 = DIRECTION ( 'NONE',  ( 4.275831445896958607E-31, 1.000000000000000000, 1.224646799147353207E-16 ) ) ;
#71 = CARTESIAN_POINT ( 'NONE',  ( 2.444036937190193349E-14, 0.8484999999999991438, 7.000000000000000000 ) ) ;
#72 = EDGE_CURVE ( 'NONE', #175, #175, #89, .T. ) ;
#73 = AXIS2_PLACEMENT_3D ( 'NONE', #210, #273, #104 ) ;
#74 = EDGE_LOOP ( 'NONE', ( #292 ) ) ;
#75 = CIRCLE ( 'NONE', #23, 0.7449999999999999956 ) ;
#76 = FACE_BOUND ( 'NONE', #9, .T. ) ;
#77 = APPROVAL_DATE_TIME ( #296, #59 ) ;
#78 = DIRECTION ( 'NONE',  ( 0.0000000000000000000, 1.000000000000000000, 0.0000000000000000000 ) ) ;
#79 = CALENDAR_DATE ( 2021, 30, 11 ) ;
#80 = ORIENTED_EDGE ( 'NONE', *, *, #17, .T. ) ;
#81 = ADVANCED_FACE ( 'NONE', ( #301, #1 ), #57, .T. ) ;
#82 = CARTESIAN_POINT ( 'NONE',  ( 2.444036937190193349E-14, -8.572527594031473190E-16, 7.000000000000000000 ) ) ;
#83 = APPLICATION_PROTOCOL_DEFINITION ( 'international standard', 'config_control_design', 1994, #233 ) ;
#84 = CARTESIAN_POINT ( 'NONE',  ( 7.142451834720206414E-14, -2.505234864108557395E-15, 20.45679510086336350 ) ) ;
#85 = DIRECTION ( 'NONE',  ( 1.000000000000000000, 0.0000000000000000000, 0.0000000000000000000 ) ) ;
#86 = DIRECTION ( 'NONE',  ( -4.275831445896958607E-31, -1.000000000000000000, -1.224646799147353207E-16 ) ) ;
#87 = CIRCLE ( 'NONE', #73, 0.7450000000000002176 ) ;
#88 = CALENDAR_DATE ( 2021, 30, 11 ) ;
#89 = CIRCLE ( 'NONE', #277, 1.499999999999996669 ) ;
#90 = CIRCLE ( 'NONE', #265, 0.8484999999999999210 ) ;
#91 = VERTEX_POINT ( 'NONE', #290 ) ;
#92 = CALENDAR_DATE ( 2021, 30, 11 ) ;
#93 = DIRECTION ( 'NONE',  ( -4.275831445896958607E-31, -1.000000000000000000, -1.224646799147353207E-16 ) ) ;
#94 = DIRECTION ( 'NONE',  ( 4.275831445896958607E-31, 1.000000000000000000, 1.224646799147353207E-16 ) ) ;
#95 = ORIENTED_EDGE ( 'NONE', *, *, #105, .T. ) ;
#96 = AXIS2_PLACEMENT_3D ( 'NONE', #280, #22, #110 ) ;
#97 = DIRECTION ( 'NONE',  ( -3.491481338843133355E-15, 1.224646799147353207E-16, -1.000000000000000000 ) ) ;
#98 = DIRECTION ( 'NONE',  ( -3.491481338843133355E-15, 1.224646799147353207E-16, -1.000000000000000000 ) ) ;
#99 = LOCAL_TIME ( 9, 32, 45.00000000000000000, #53 ) ;
#100 = ORIENTED_EDGE ( 'NONE', *, *, #17, .F. ) ;
#101 = CC_DESIGN_PERSON_AND_ORGANIZATION_ASSIGNMENT ( #136, #165, ( #226 ) ) ;
#102 = DESIGN_CONTEXT ( 'detailed design', #29, 'design' ) ;
#103 = EDGE_LOOP ( 'NONE', ( #80 ) ) ;
#104 = DIRECTION ( 'NONE',  ( 0.0000000000000000000, 1.000000000000000000, 0.0000000000000000000 ) ) ;
#105 = EDGE_CURVE ( 'NONE', #131, #131, #245, .T. ) ;
#106 = DIRECTION ( 'NONE',  ( 0.0000000000000000000, 1.000000000000000000, 0.0000000000000000000 ) ) ;
#107 = CARTESIAN_POINT ( 'NONE',  ( 5.707628016518647231E-14, 0.7753844939755792920, 16.34729635533384240 ) ) ;
#108 = DIRECTION ( 'NONE',  ( -3.491481338843133355E-15, 1.224646799147353207E-16, -1.000000000000000000 ) ) ;
#109 =( NAMED_UNIT ( * ) SI_UNIT ( $, .STERADIAN. ) SOLID_ANGLE_UNIT ( ) );
#110 = DIRECTION ( 'NONE',  ( -4.539610947288716509E-31, -1.000000000000000000, -1.277786885663530502E-16 ) ) ;
#111 = AXIS2_PLACEMENT_3D ( 'NONE', #82, #186, #55 ) ;
#112 = PERSON_AND_ORGANIZATION ( #225, #224 ) ;
#113 = DATE_AND_TIME ( #92, #291 ) ;
#114 = EDGE_CURVE ( 'NONE', #184, #184, #90, .T. ) ;
#115 = DIRECTION ( 'NONE',  ( -3.491481338843133355E-15, 1.224646799147353207E-16, -1.000000000000000000 ) ) ;
#116 = ORIENTED_EDGE ( 'NONE', *, *, #105, .F. ) ;
#117 = CARTESIAN_POINT ( 'NONE',  ( -2.451807849576108841E-31, 8.599784285550892123E-33, -7.022256777658992136E-17 ) ) ;
#118 = APPROVAL_ROLE ( '' ) ;
#119 = FACE_OUTER_BOUND ( 'NONE', #275, .T. ) ;
#120 = CARTESIAN_POINT ( 'NONE',  ( 0.0000000000000000000, 0.0000000000000000000, 0.0000000000000000000 ) ) ;
#121 = ADVANCED_FACE ( 'NONE', ( #252, #249 ), #129, .T. ) ;
#122 = LOCAL_TIME ( 9, 32, 45.00000000000000000, #253 ) ;
#123 = APPROVAL_PERSON_ORGANIZATION ( #4, #197, #118 ) ;
#124 = ADVANCED_FACE ( 'NONE', ( #281, #58 ), #177, .T. ) ;
#125 = FACE_OUTER_BOUND ( 'NONE', #247, .T. ) ;
#126 = COORDINATED_UNIVERSAL_TIME_OFFSET ( 1, 0, .AHEAD. ) ;
#127 = VERTEX_POINT ( 'NONE', #269 ) ;
#128 = EDGE_LOOP ( 'NONE', ( #95 ) ) ;
#129 = CONICAL_SURFACE ( 'NONE', #96, 0.8484999999999991438, 0.5235987755982925984 ) ;
#130 = DIRECTION ( 'NONE',  ( -3.491481338843133355E-15, 1.224646799147353207E-16, -1.000000000000000000 ) ) ;
#131 = VERTEX_POINT ( 'NONE', #154 ) ;
#132 = DIRECTION ( 'NONE',  ( -3.491481338843133355E-15, 1.224646799147353207E-16, -1.000000000000000000 ) ) ;
#133 = ADVANCED_FACE ( 'NONE', ( #189, #31 ), #244, .T. ) ;
#134 = PRODUCT_RELATED_PRODUCT_CATEGORY ( 'detail', '', ( #146 ) ) ;
#135 = CIRCLE ( 'NONE', #255, 0.7753844939755811794 ) ;
#136 = PERSON_AND_ORGANIZATION ( #225, #224 ) ;
#137 = APPROVAL_STATUS ( 'not_yet_approved' ) ;
#138 = ADVANCED_FACE ( 'NONE', ( #286 ), #289, .F. ) ;
#139 = FACE_OUTER_BOUND ( 'NONE', #144, .T. ) ;
#140 = PERSON_AND_ORGANIZATION ( #225, #224 ) ;
#141 = ORIENTED_EDGE ( 'NONE', *, *, #68, .F. ) ;
#142 = EDGE_CURVE ( 'NONE', #190, #190, #135, .T. ) ;
#143 = DIRECTION ( 'NONE',  ( 3.491481338843133355E-15, -1.224646799147353207E-16, 1.000000000000000000 ) ) ;
#144 = EDGE_LOOP ( 'NONE', ( #167 ) ) ;
#145 = DIRECTION ( 'NONE',  ( 4.275831445896958607E-31, 1.000000000000000000, 1.224646799147353207E-16 ) ) ;
#146 = PRODUCT ( '952172', '952172', '', ( #16 ) ) ;
#147 = VERTEX_POINT ( 'NONE', #71 ) ;
#148 = AXIS2_PLACEMENT_3D ( 'NONE', #26, #238, #24 ) ;
#149 = CC_DESIGN_PERSON_AND_ORGANIZATION_ASSIGNMENT ( #182, #271, ( #298 ) ) ;
#150 = AXIS2_PLACEMENT_3D ( 'NONE', #159, #231, #188 ) ;
#151 = APPROVAL_STATUS ( 'not_yet_approved' ) ;
#152 = ORIENTED_EDGE ( 'NONE', *, *, #211, .T. ) ;
#153 = APPROVAL ( #203, 'UNSPECIFIED' ) ;
#154 = CARTESIAN_POINT ( 'NONE',  ( 8.728703347107833388E-16, 0.8484999999999991438, 0.2500000000000000000 ) ) ;
#155 = EDGE_LOOP ( 'NONE', ( #5 ) ) ;
#156 = CARTESIAN_POINT ( 'NONE',  ( 2.444036937190193349E-14, -8.572527594031473190E-16, 7.000000000000000000 ) ) ;
#157 = DATE_TIME_ROLE ( 'creation_date' ) ;
#158 = AXIS2_PLACEMENT_3D ( 'NONE', #282, #303, #78 ) ;
#159 = CARTESIAN_POINT ( 'NONE',  ( 8.728703347107829444E-16, -3.061616997868381785E-17, 0.2499999999999998890 ) ) ;
#160 = DIRECTION ( 'NONE',  ( 0.0000000000000000000, 1.000000000000000000, 0.0000000000000000000 ) ) ;
#161 = CC_DESIGN_DATE_AND_TIME_ASSIGNMENT ( #274, #157, ( #298 ) ) ;
#162 = CARTESIAN_POINT ( 'NONE',  ( 7.142451834720206414E-14, -2.505234864108557395E-15, 20.45679510086336350 ) ) ;
#163 = SECURITY_CLASSIFICATION_LEVEL ( 'unclassified' ) ;
#164 = CARTESIAN_POINT ( 'NONE',  ( 2.444036937190193349E-14, 6.362730877942916587E-33, 7.000000000000000000 ) ) ;
#165 = PERSON_AND_ORGANIZATION_ROLE ( 'creator' ) ;
#166 = PLANE ( 'NONE',  #148 ) ;
#167 = ORIENTED_EDGE ( 'NONE', *, *, #211, .F. ) ;
#168 = CLOSED_SHELL ( 'NONE', ( #264, #81, #272, #287, #124, #133, #13, #187 ) ) ;
#169 = FACE_OUTER_BOUND ( 'NONE', #155, .T. ) ;
#170 = AXIS2_PLACEMENT_3D ( 'NONE', #228, #98, #106 ) ;
#171 = EDGE_LOOP ( 'NONE', ( #200 ) ) ;
#172 = ORIENTED_EDGE ( 'NONE', *, *, #42, .T. ) ;
#173 = PLANE ( 'NONE',  #6 ) ;
#174 = EDGE_LOOP ( 'NONE', ( #267 ) ) ;
#175 = VERTEX_POINT ( 'NONE', #250 ) ;
#176 = PRODUCT_DEFINITION_SHAPE ( 'NONE', 'NONE',  #298 ) ;
#177 = CONICAL_SURFACE ( 'NONE', #270, 1.499999999999996669, 0.1745329251994260644 ) ;
#178 = ADVANCED_FACE ( 'NONE', ( #46 ), #166, .T. ) ;
#179 = ORIENTED_EDGE ( 'NONE', *, *, #114, .T. ) ;
#180 =( NAMED_UNIT ( * ) PLANE_ANGLE_UNIT ( ) SI_UNIT ( $, .RADIAN. ) );
#181 = AXIS2_PLACEMENT_3D ( 'NONE', #222, #10, #94 ) ;
#182 = PERSON_AND_ORGANIZATION ( #225, #224 ) ;
#183 = PERSON_AND_ORGANIZATION_ROLE ( 'design_owner' ) ;
#184 = VERTEX_POINT ( 'NONE', #54 ) ;
#185 = AXIS2_PLACEMENT_3D ( 'NONE', #164, #48, #93 ) ;
#186 = DIRECTION ( 'NONE',  ( -3.491481338843133355E-15, 1.224646799147353207E-16, -1.000000000000000000 ) ) ;
#187 = ADVANCED_FACE ( 'NONE', ( #119 ), #173, .F. ) ;
#188 = DIRECTION ( 'NONE',  ( 4.539610947288716509E-31, 1.000000000000000000, 1.277786885663530502E-16 ) ) ;
#189 = FACE_OUTER_BOUND ( 'NONE', #19, .T. ) ;
#190 = VERTEX_POINT ( 'NONE', #107 ) ;
#191 = AXIS2_PLACEMENT_3D ( 'NONE', #117, #143, #86 ) ;
#192 = COORDINATED_UNIVERSAL_TIME_OFFSET ( 1, 0, .AHEAD. ) ;
#193 = DIRECTION ( 'NONE',  ( 4.275831445896958607E-31, 1.000000000000000000, 1.224646799147353454E-16 ) ) ;
#194 = APPROVAL_DATE_TIME ( #113, #153 ) ;
#195 = CARTESIAN_POINT ( 'NONE',  ( -4.903615699152217683E-31, 1.719956857110178425E-32, -1.404451355531798427E-16 ) ) ;
#196 = CYLINDRICAL_SURFACE ( 'NONE', #41, 0.7450000000000001066 ) ;
#197 = APPROVAL ( #137, 'UNSPECIFIED' ) ;
#198 = DIRECTION ( 'NONE',  ( -3.491481338843133355E-15, 1.224646799147353207E-16, -1.000000000000000000 ) ) ;
#199 = AXIS2_PLACEMENT_3D ( 'NONE', #32, #284, #193 ) ;
#200 = ORIENTED_EDGE ( 'NONE', *, *, #266, .F. ) ;
#201 = CALENDAR_DATE ( 2021, 30, 11 ) ;
#202 = CARTESIAN_POINT ( 'NONE',  ( 1.745740669421566678E-13, -6.123233995736766085E-15, 50.00000000000000000 ) ) ;
#203 = APPROVAL_STATUS ( 'not_yet_approved' ) ;
#204 = ADVANCED_FACE ( 'NONE', ( #34, #169 ), #263, .T. ) ;
#205 = CARTESIAN_POINT ( 'NONE',  ( 1.735266225405037467E-13, -6.086494591762345225E-15, 49.70000000000000284 ) ) ;
#206 = APPLICATION_PROTOCOL_DEFINITION ( 'international standard', 'config_control_design', 1994, #29 ) ;
#207 = CIRCLE ( 'NONE', #254, 1.200000000000001732 ) ;
#208 = AXIS2_PLACEMENT_3D ( 'NONE', #205, #108, #160 ) ;
#209 = CC_DESIGN_APPROVAL ( #197, ( #294 ) ) ;
#210 = CARTESIAN_POINT ( 'NONE',  ( 5.586370142149013368E-14, -1.959434878635765131E-15, 16.00000000000000000 ) ) ;
#211 = EDGE_CURVE ( 'NONE', #127, #127, #75, .T. ) ;
#212 = DIRECTION ( 'NONE',  ( 4.275831445896958607E-31, 1.000000000000000000, 1.224646799147353207E-16 ) ) ;
#213 = SHAPE_DEFINITION_REPRESENTATION ( #176, #232 ) ;
#214 = CONICAL_SURFACE ( 'NONE', #170, 1.200000000000001732, 0.7853981633974453924 ) ;
#215 = MANIFOLD_SOLID_BREP ( 'Corps-Déplacer/Copier1[1]', #168 ) ;
#216 = FACE_OUTER_BOUND ( 'NONE', #40, .T. ) ;
#217 = MANIFOLD_SOLID_BREP ( 'Corps-Déplacer/Copier1[2]', #36 ) ;
#218 = TOROIDAL_SURFACE ( 'NONE', #181, 2.745000000000000551, 2.000000000000000000 ) ;
#219 = CALENDAR_DATE ( 2021, 30, 11 ) ;
#220 = DIRECTION ( 'NONE',  ( 0.0000000000000000000, -1.000000000000000000, 0.0000000000000000000 ) ) ;
#221 = EDGE_LOOP ( 'NONE', ( #47 ) ) ;
#222 = CARTESIAN_POINT ( 'NONE',  ( 5.586370142149013368E-14, -2.168404344971008868E-15, 16.00000000000000000 ) ) ;
#223 = DIRECTION ( 'NONE',  ( 3.491481338843133355E-15, -1.224646799147353207E-16, 1.000000000000000000 ) ) ;
#224 = ORGANIZATION ( 'UNSPECIFIED', 'UNSPECIFIED', '' ) ;
#225 = PERSON ( 'UNSPECIFIED', 'UNSPECIFIED', 'UNSPECIFIED', ('UNSPECIFIED'), ('UNSPECIFIED'), ('UNSPECIFIED') ) ;
#226 = PRODUCT_DEFINITION_FORMATION_WITH_SPECIFIED_SOURCE ( 'ANY', '', #146, .NOT_KNOWN. ) ;
#227 = ORIENTED_EDGE ( 'NONE', *, *, #72, .T. ) ;
#228 = CARTESIAN_POINT ( 'NONE',  ( 1.745740669421566678E-13, -6.123233995736766085E-15, 50.00000000000000000 ) ) ;
#229 = CARTESIAN_POINT ( 'NONE',  ( 0.0000000000000000000, 0.0000000000000000000, 0.0000000000000000000 ) ) ;
#230 = EDGE_LOOP ( 'NONE', ( #116 ) ) ;
#231 = DIRECTION ( 'NONE',  ( -3.491481338843133355E-15, 1.224646799147353207E-16, -1.000000000000000000 ) ) ;
#232 = ADVANCED_BREP_SHAPE_REPRESENTATION ( '952172', ( #215, #217, #251 ), #261 ) ;
#233 = APPLICATION_CONTEXT ( 'configuration controlled 3d designs of mechanical parts and assemblies' ) ;
#234 = DIRECTION ( 'NONE',  ( 0.0000000000000000000, 1.000000000000000000, 0.0000000000000000000 ) ) ;
#235 = PERSON_AND_ORGANIZATION_ROLE ( 'design_supplier' ) ;
#236 = PERSON_AND_ORGANIZATION_ROLE ( 'classification_officer' ) ;
#237 = DIRECTION ( 'NONE',  ( -3.491481338843133355E-15, 1.224646799147353207E-16, -1.000000000000000000 ) ) ;
#238 = DIRECTION ( 'NONE',  ( 3.491481338843133355E-15, -1.224646799147353207E-16, 1.000000000000000000 ) ) ;
#239 = EDGE_LOOP ( 'NONE', ( #152 ) ) ;
#240 = EDGE_LOOP ( 'NONE', ( #141 ) ) ;
#241 = DIRECTION ( 'NONE',  ( 0.0000000000000000000, 1.000000000000000000, 0.0000000000000000000 ) ) ;
#242 = AXIS2_PLACEMENT_3D ( 'NONE', #260, #115, #212 ) ;
#243 = FACE_OUTER_BOUND ( 'NONE', #221, .T. ) ;
#244 = CYLINDRICAL_SURFACE ( 'NONE', #199, 1.499999999999999112 ) ;
#245 = CIRCLE ( 'NONE', #150, 0.8484999999999991438 ) ;
#246 = CC_DESIGN_DATE_AND_TIME_ASSIGNMENT ( #256, #27, ( #294 ) ) ;
#247 = EDGE_LOOP ( 'NONE', ( #100 ) ) ;
#248 = ORIENTED_EDGE ( 'NONE', *, *, #142, .T. ) ;
#249 = FACE_OUTER_BOUND ( 'NONE', #128, .T. ) ;
#250 = CARTESIAN_POINT ( 'NONE',  ( 7.142451834720206414E-14, 1.499999999999994005, 20.45679510086336350 ) ) ;
#251 = AXIS2_PLACEMENT_3D ( 'NONE', #229, #18, #85 ) ;
#252 = FACE_BOUND ( 'NONE', #171, .T. ) ;
#253 = COORDINATED_UNIVERSAL_TIME_OFFSET ( 1, 0, .AHEAD. ) ;
#254 = AXIS2_PLACEMENT_3D ( 'NONE', #202, #299, #43 ) ;
#255 = AXIS2_PLACEMENT_3D ( 'NONE', #52, #237, #241 ) ;
#256 = DATE_AND_TIME ( #88, #122 ) ;
#257 = DIRECTION ( 'NONE',  ( -3.491481338843133355E-15, 1.224646799147353207E-16, -1.000000000000000000 ) ) ;
#258 = APPROVAL_DATE_TIME ( #288, #197 ) ;
#259 = DIRECTION ( 'NONE',  ( 0.0000000000000000000, 1.000000000000000000, 0.0000000000000000000 ) ) ;
#260 = CARTESIAN_POINT ( 'NONE',  ( 0.0000000000000000000, 0.0000000000000000000, 0.0000000000000000000 ) ) ;
#261 =( GEOMETRIC_REPRESENTATION_CONTEXT ( 3 ) GLOBAL_UNCERTAINTY_ASSIGNED_CONTEXT ( ( #268 ) ) GLOBAL_UNIT_ASSIGNED_CONTEXT ( ( #39, #180, #109 ) ) REPRESENTATION_CONTEXT ( 'NONE', 'WORKASPACE' ) );
#262 = VERTEX_POINT ( 'NONE', #11 ) ;
#263 = CYLINDRICAL_SURFACE ( 'NONE', #242, 0.8484999999999995879 ) ;
#264 = ADVANCED_FACE ( 'NONE', ( #8 ), #3, .F. ) ;
#265 = AXIS2_PLACEMENT_3D ( 'NONE', #156, #130, #234 ) ;
#266 = EDGE_CURVE ( 'NONE', #276, #276, #30, .T. ) ;
#267 = ORIENTED_EDGE ( 'NONE', *, *, #266, .T. ) ;
#268 = UNCERTAINTY_MEASURE_WITH_UNIT (LENGTH_MEASURE( 1.000000000000000082E-05 ), #39, 'distance_accuracy_value', 'NONE');
#269 = CARTESIAN_POINT ( 'NONE',  ( 2.506627765991135921E-14, 0.7449999999999991074, 7.179267258583376332 ) ) ;
#270 = AXIS2_PLACEMENT_3D ( 'NONE', #162, #223, #220 ) ;
#271 = PERSON_AND_ORGANIZATION_ROLE ( 'creator' ) ;
#272 = ADVANCED_FACE ( 'NONE', ( #7, #139 ), #196, .T. ) ;
#273 = DIRECTION ( 'NONE',  ( -3.491481338843133355E-15, 1.224646799147353207E-16, -1.000000000000000000 ) ) ;
#274 = DATE_AND_TIME ( #79, #99 ) ;
#275 = EDGE_LOOP ( 'NONE', ( #33 ) ) ;
#276 = VERTEX_POINT ( 'NONE', #56 ) ;
#277 = AXIS2_PLACEMENT_3D ( 'NONE', #84, #132, #60 ) ;
#278 = CC_DESIGN_APPROVAL ( #59, ( #298 ) ) ;
#279 = LOCAL_TIME ( 9, 32, 45.00000000000000000, #126 ) ;
#280 = CARTESIAN_POINT ( 'NONE',  ( 8.728703347107829444E-16, -3.061616997868381785E-17, 0.2499999999999998890 ) ) ;
#281 = FACE_BOUND ( 'NONE', #64, .T. ) ;
#282 = CARTESIAN_POINT ( 'NONE',  ( 2.444036937190193349E-14, -8.572527594031473190E-16, 7.000000000000000000 ) ) ;
#283 = CC_DESIGN_APPROVAL ( #153, ( #226 ) ) ;
#284 = DIRECTION ( 'NONE',  ( -3.491481338843133355E-15, 1.224646799147353207E-16, -1.000000000000000000 ) ) ;
#285 = PERSON_AND_ORGANIZATION ( #225, #224 ) ;
#286 = FACE_OUTER_BOUND ( 'NONE', #174, .T. ) ;
#287 = ADVANCED_FACE ( 'NONE', ( #243, #216 ), #218, .F. ) ;
#288 = DATE_AND_TIME ( #219, #37 ) ;
#289 = PLANE ( 'NONE',  #191 ) ;
#290 = CARTESIAN_POINT ( 'NONE',  ( 5.586370142149013368E-14, 0.7449999999999982192, 16.00000000000000000 ) ) ;
#291 = LOCAL_TIME ( 9, 32, 45.00000000000000000, #63 ) ;
#292 = ORIENTED_EDGE ( 'NONE', *, *, #114, .F. ) ;
#293 = CARTESIAN_POINT ( 'NONE',  ( 1.745740669421566678E-13, 1.199999999999995515, 50.00000000000000000 ) ) ;
#294 = SECURITY_CLASSIFICATION ( '', '', #163 ) ;
#295 = ORIENTED_EDGE ( 'NONE', *, *, #142, .F. ) ;
#296 = DATE_AND_TIME ( #201, #279 ) ;
#297 = APPROVAL_PERSON_ORGANIZATION ( #285, #59, #38 ) ;
#298 = PRODUCT_DEFINITION ( 'UNKNOWN', '', #226, #102 ) ;
#299 = DIRECTION ( 'NONE',  ( -3.491481338843133355E-15, 1.224646799147353207E-16, -1.000000000000000000 ) ) ;
#300 = PERSON_AND_ORGANIZATION ( #225, #224 ) ;
#301 = FACE_BOUND ( 'NONE', #239, .T. ) ;
#302 = APPROVAL_ROLE ( '' ) ;
#303 = DIRECTION ( 'NONE',  ( -3.491481338843133355E-15, 1.224646799147353207E-16, -1.000000000000000000 ) ) ;
ENDSEC;
END-ISO-10303-21;
