ISO-10303-21;
HEADER;
FILE_DESCRIPTION (( 'STEP AP203' ),
    '1' );
FILE_NAME ('952158.step',
    '2021-11-30T09:36:58',
    ( '' ),
    ( '' ),
    'SwSTEP 2.0',
    'SolidWorks 2019',
    '' );
FILE_SCHEMA (( 'CONFIG_CONTROL_DESIGN' ));
ENDSEC;

DATA;
#1 = AXIS2_PLACEMENT_3D ( 'NONE', #103, #288, #80 ) ;
#2 = EDGE_LOOP ( 'NONE', ( #33 ) ) ;
#3 = FACE_OUTER_BOUND ( 'NONE', #49, .T. ) ;
#4 = PRODUCT ( '952158', '952158', '', ( #86 ) ) ;
#5 = DIRECTION ( 'NONE',  ( 0.0000000000000000000, 1.000000000000000000, 0.0000000000000000000 ) ) ;
#6 = CARTESIAN_POINT ( 'NONE',  ( 2.119329172677781757E-13, -7.433606070824434221E-15, 60.69999999999999574 ) ) ;
#7 = MANIFOLD_SOLID_BREP ( 'Corps-Déplacer/Copier1[2]', #193 ) ;
#8 = FACE_BOUND ( 'NONE', #301, .T. ) ;
#9 = DIRECTION ( 'NONE',  ( -4.398774140206861992E-31, -1.000000000000000000, -1.238144848670162350E-16 ) ) ;
#10 =( GEOMETRIC_REPRESENTATION_CONTEXT ( 3 ) GLOBAL_UNCERTAINTY_ASSIGNED_CONTEXT ( ( #275 ) ) GLOBAL_UNIT_ASSIGNED_CONTEXT ( ( #35, #297, #57 ) ) REPRESENTATION_CONTEXT ( 'NONE', 'WORKASPACE' ) );
#11 = COORDINATED_UNIVERSAL_TIME_OFFSET ( 1, 0, .AHEAD. ) ;
#12 = TOROIDAL_SURFACE ( 'NONE', #209, 3.110000000000000320, 2.000000000000000888 ) ;
#13 = CALENDAR_DATE ( 2021, 30, 11 ) ;
#14 = CIRCLE ( 'NONE', #128, 1.313499999999999890 ) ;
#15 = VERTEX_POINT ( 'NONE', #156 ) ;
#16 = ADVANCED_FACE ( 'NONE', ( #46 ), #121, .T. ) ;
#17 = APPROVAL_DATE_TIME ( #117, #19 ) ;
#18 = EDGE_LOOP ( 'NONE', ( #118 ) ) ;
#19 = APPROVAL ( #232, 'UNSPECIFIED' ) ;
#20 = EDGE_LOOP ( 'NONE', ( #290 ) ) ;
#21 = CC_DESIGN_PERSON_AND_ORGANIZATION_ASSIGNMENT ( #200, #204, ( #257 ) ) ;
#22 = PERSON_AND_ORGANIZATION_ROLE ( 'design_supplier' ) ;
#23 = CARTESIAN_POINT ( 'NONE',  ( 3.491481338843133355E-14, 9.849672372631734978E-33, 10.00000000000000000 ) ) ;
#24 = PRODUCT_DEFINITION_SHAPE ( 'NONE', 'NONE',  #257 ) ;
#25 = ORIENTED_EDGE ( 'NONE', *, *, #207, .T. ) ;
#26 = CIRCLE ( 'NONE', #73, 1.313499999999998780 ) ;
#27 = ORIENTED_EDGE ( 'NONE', *, *, #31, .F. ) ;
#28 = DIRECTION ( 'NONE',  ( 3.491481338843133355E-15, -1.224646799147353454E-16, 1.000000000000000000 ) ) ;
#29 = DIRECTION ( 'NONE',  ( -3.491481338843133355E-15, 1.224646799147353454E-16, -1.000000000000000000 ) ) ;
#30 = DIRECTION ( 'NONE',  ( 3.491481338843133355E-15, -1.224646799147353454E-16, 1.000000000000000000 ) ) ;
#31 = EDGE_CURVE ( 'NONE', #271, #271, #79, .T. ) ;
#32 = DIRECTION ( 'NONE',  ( -3.491481338843133355E-15, 1.224646799147353454E-16, -1.000000000000000000 ) ) ;
#33 = ORIENTED_EDGE ( 'NONE', *, *, #249, .T. ) ;
#34 = DIRECTION ( 'NONE',  ( -3.491481338843133355E-15, 1.224646799147353454E-16, -1.000000000000000000 ) ) ;
#35 =( LENGTH_UNIT ( ) NAMED_UNIT ( * ) SI_UNIT ( .MILLI., .METRE. ) );
#36 = CONICAL_SURFACE ( 'NONE', #284, 1.109999999999998321, 0.5235987755982930425 ) ;
#37 = CARTESIAN_POINT ( 'NONE',  ( 3.614546398369628854E-14, 1.109999999999996989, 10.35247233934027378 ) ) ;
#38 = COORDINATED_UNIVERSAL_TIME_OFFSET ( 1, 0, .AHEAD. ) ;
#39 = PERSON_AND_ORGANIZATION ( #90, #137 ) ;
#40 = LOCAL_TIME ( 10, 36, 58.00000000000000000, #91 ) ;
#41 = PERSON_AND_ORGANIZATION ( #90, #137 ) ;
#42 = CALENDAR_DATE ( 2021, 30, 11 ) ;
#43 = DIRECTION ( 'NONE',  ( -3.491481338843133355E-15, 1.224646799147353454E-16, -1.000000000000000000 ) ) ;
#44 = CC_DESIGN_PERSON_AND_ORGANIZATION_ASSIGNMENT ( #162, #276, ( #122 ) ) ;
#45 = EDGE_CURVE ( 'NONE', #133, #133, #149, .T. ) ;
#46 = FACE_OUTER_BOUND ( 'NONE', #212, .T. ) ;
#47 = APPROVAL_PERSON_ORGANIZATION ( #41, #19, #69 ) ;
#48 = APPROVAL_DATE_TIME ( #188, #205 ) ;
#49 = EDGE_LOOP ( 'NONE', ( #25 ) ) ;
#50 = DIRECTION ( 'NONE',  ( -3.491481338843133355E-15, 1.224646799147353454E-16, -1.000000000000000000 ) ) ;
#51 = CARTESIAN_POINT ( 'NONE',  ( 8.728703347107833388E-14, -3.061616997868383831E-15, 25.00000000000000000 ) ) ;
#52 = CARTESIAN_POINT ( 'NONE',  ( 3.491481338843133355E-14, 9.849672372631734978E-33, 10.00000000000000000 ) ) ;
#53 = CARTESIAN_POINT ( 'NONE',  ( 3.614546398369628854E-14, -1.267812211363458297E-15, 10.35247233934027378 ) ) ;
#54 = FACE_OUTER_BOUND ( 'NONE', #298, .T. ) ;
#55 = DIRECTION ( 'NONE',  ( 4.275831445896959482E-31, 1.000000000000000000, 1.224646799147353454E-16 ) ) ;
#56 = CARTESIAN_POINT ( 'NONE',  ( 9.562042165300179749E-14, -3.353912908188970182E-15, 27.38677723670281594 ) ) ;
#57 =( NAMED_UNIT ( * ) SI_UNIT ( $, .STERADIAN. ) SOLID_ANGLE_UNIT ( ) );
#58 = AXIS2_PLACEMENT_3D ( 'NONE', #67, #253, #114 ) ;
#59 = CARTESIAN_POINT ( 'NONE',  ( 3.491481338843133355E-14, 1.313499999999998780, 10.00000000000000000 ) ) ;
#60 = VERTEX_POINT ( 'NONE', #247 ) ;
#61 = ADVANCED_FACE ( 'NONE', ( #168, #233 ), #250, .T. ) ;
#62 = CONICAL_SURFACE ( 'NONE', #104, 1.499999999999996003, 0.1745329251994265363 ) ;
#63 = CARTESIAN_POINT ( 'NONE',  ( 2.119329172677781757E-13, 1.499999999999994005, 60.69999999999999574 ) ) ;
#64 = AXIS2_PLACEMENT_3D ( 'NONE', #192, #194, #9 ) ;
#65 = PERSON_AND_ORGANIZATION ( #90, #137 ) ;
#66 = EDGE_LOOP ( 'NONE', ( #184 ) ) ;
#67 = CARTESIAN_POINT ( 'NONE',  ( 3.614546398369628854E-14, -1.267812211363458297E-15, 10.35247233934027378 ) ) ;
#68 = DIRECTION ( 'NONE',  ( -3.491481338843133355E-15, 1.224646799147353454E-16, -1.000000000000000000 ) ) ;
#69 = APPROVAL_ROLE ( '' ) ;
#70 = ORIENTED_EDGE ( 'NONE', *, *, #269, .T. ) ;
#71 = DIRECTION ( 'NONE',  ( 0.0000000000000000000, 1.000000000000000000, 0.0000000000000000000 ) ) ;
#72 = FACE_OUTER_BOUND ( 'NONE', #18, .T. ) ;
#73 = AXIS2_PLACEMENT_3D ( 'NONE', #286, #129, #131 ) ;
#74 = DIRECTION ( 'NONE',  ( 0.0000000000000000000, 1.000000000000000000, 0.0000000000000000000 ) ) ;
#75 = ADVANCED_FACE ( 'NONE', ( #303 ), #186, .F. ) ;
#76 = FACE_OUTER_BOUND ( 'NONE', #167, .T. ) ;
#77 = ORIENTED_EDGE ( 'NONE', *, *, #249, .F. ) ;
#78 = CARTESIAN_POINT ( 'NONE',  ( 0.0000000000000000000, 0.0000000000000000000, 0.0000000000000000000 ) ) ;
#79 = CIRCLE ( 'NONE', #58, 1.109999999999998321 ) ;
#80 = DIRECTION ( 'NONE',  ( 0.0000000000000000000, 1.000000000000000000, 0.0000000000000000000 ) ) ;
#81 = LOCAL_TIME ( 10, 36, 58.00000000000000000, #11 ) ;
#82 = APPROVAL_DATE_TIME ( #110, #134 ) ;
#83 = APPLICATION_CONTEXT ( 'configuration controlled 3d designs of mechanical parts and assemblies' ) ;
#84 = VERTEX_POINT ( 'NONE', #63 ) ;
#85 = CIRCLE ( 'NONE', #231, 1.110000000000000320 ) ;
#86 = MECHANICAL_CONTEXT ( 'NONE', #83, 'mechanical' ) ;
#87 = AXIS2_PLACEMENT_3D ( 'NONE', #126, #34, #173 ) ;
#88 = PRODUCT_RELATED_PRODUCT_CATEGORY ( 'detail', '', ( #4 ) ) ;
#89 = VERTEX_POINT ( 'NONE', #59 ) ;
#90 = PERSON ( 'UNSPECIFIED', 'UNSPECIFIED', 'UNSPECIFIED', ('UNSPECIFIED'), ('UNSPECIFIED'), ('UNSPECIFIED') ) ;
#91 = COORDINATED_UNIVERSAL_TIME_OFFSET ( 1, 0, .AHEAD. ) ;
#92 = DIRECTION ( 'NONE',  ( 3.491481338843133355E-15, -1.224646799147353454E-16, 1.000000000000000000 ) ) ;
#93 = SHAPE_DEFINITION_REPRESENTATION ( #24, #102 ) ;
#94 = DIRECTION ( 'NONE',  ( 0.0000000000000000000, 1.000000000000000000, 0.0000000000000000000 ) ) ;
#95 = FACE_OUTER_BOUND ( 'NONE', #139, .T. ) ;
#96 = EDGE_LOOP ( 'NONE', ( #236 ) ) ;
#97 = FACE_BOUND ( 'NONE', #191, .T. ) ;
#98 = DIRECTION ( 'NONE',  ( 0.0000000000000000000, 1.000000000000000000, 0.0000000000000000000 ) ) ;
#99 = EDGE_CURVE ( 'NONE', #112, #112, #85, .T. ) ;
#100 = DIRECTION ( 'NONE',  ( -3.491481338843133355E-15, 1.224646799147353454E-16, -1.000000000000000000 ) ) ;
#101 = DIRECTION ( 'NONE',  ( -3.491481338843133355E-15, 1.224646799147353454E-16, -1.000000000000000000 ) ) ;
#102 = ADVANCED_BREP_SHAPE_REPRESENTATION ( '952158', ( #211, #7, #175 ), #10 ) ;
#103 = CARTESIAN_POINT ( 'NONE',  ( 8.849961221477469775E-14, -3.104148534859897544E-15, 25.34729635533384595 ) ) ;
#104 = AXIS2_PLACEMENT_3D ( 'NONE', #240, #30, #241 ) ;
#105 = ORIENTED_EDGE ( 'NONE', *, *, #174, .F. ) ;
#106 = CARTESIAN_POINT ( 'NONE',  ( 8.849961221477469775E-14, 1.140384493975577396, 25.34729635533384595 ) ) ;
#107 = DIRECTION ( 'NONE',  ( 0.0000000000000000000, 0.0000000000000000000, 1.000000000000000000 ) ) ;
#108 = CC_DESIGN_DATE_AND_TIME_ASSIGNMENT ( #280, #228, ( #122 ) ) ;
#109 = ADVANCED_FACE ( 'NONE', ( #230, #206 ), #12, .F. ) ;
#110 = DATE_AND_TIME ( #13, #273 ) ;
#111 = AXIS2_PLACEMENT_3D ( 'NONE', #56, #153, #215 ) ;
#112 = VERTEX_POINT ( 'NONE', #157 ) ;
#113 = SECURITY_CLASSIFICATION_LEVEL ( 'unclassified' ) ;
#114 = DIRECTION ( 'NONE',  ( 0.0000000000000000000, 1.000000000000000000, 0.0000000000000000000 ) ) ;
#115 = CALENDAR_DATE ( 2021, 30, 11 ) ;
#116 = CARTESIAN_POINT ( 'NONE',  ( 3.491481338843133355E-14, -1.224646799147353454E-15, 10.00000000000000000 ) ) ;
#117 = DATE_AND_TIME ( #166, #225 ) ;
#118 = ORIENTED_EDGE ( 'NONE', *, *, #99, .T. ) ;
#119 = ADVANCED_FACE ( 'NONE', ( #95, #72 ), #197, .T. ) ;
#120 = AXIS2_PLACEMENT_3D ( 'NONE', #252, #258, #94 ) ;
#121 = PLANE ( 'NONE',  #127 ) ;
#122 = SECURITY_CLASSIFICATION ( '', '', #113 ) ;
#123 = DIRECTION ( 'NONE',  ( -4.275831445896959482E-31, -1.000000000000000000, -1.224646799147353454E-16 ) ) ;
#124 = FACE_OUTER_BOUND ( 'NONE', #164, .T. ) ;
#125 = EDGE_CURVE ( 'NONE', #223, #223, #267, .T. ) ;
#126 = CARTESIAN_POINT ( 'NONE',  ( 0.0000000000000000000, 0.0000000000000000000, 0.0000000000000000000 ) ) ;
#127 = AXIS2_PLACEMENT_3D ( 'NONE', #23, #256, #123 ) ;
#128 = AXIS2_PLACEMENT_3D ( 'NONE', #176, #264, #74 ) ;
#129 = DIRECTION ( 'NONE',  ( -3.491481338843133355E-15, 1.224646799147353454E-16, -1.000000000000000000 ) ) ;
#130 = APPLICATION_CONTEXT ( 'configuration controlled 3d designs of mechanical parts and assemblies' ) ;
#131 = DIRECTION ( 'NONE',  ( 4.398774140206861992E-31, 1.000000000000000000, 1.238144848670162350E-16 ) ) ;
#132 = CC_DESIGN_PERSON_AND_ORGANIZATION_ASSIGNMENT ( #65, #22, ( #165 ) ) ;
#133 = VERTEX_POINT ( 'NONE', #182 ) ;
#134 = APPROVAL ( #270, 'UNSPECIFIED' ) ;
#135 = CARTESIAN_POINT ( 'NONE',  ( 2.129803616694311221E-13, 1.199999999999993960, 61.00000000000000000 ) ) ;
#136 = AXIS2_PLACEMENT_3D ( 'NONE', #116, #50, #71 ) ;
#137 = ORGANIZATION ( 'UNSPECIFIED', 'UNSPECIFIED', '' ) ;
#138 = EDGE_LOOP ( 'NONE', ( #185 ) ) ;
#139 = EDGE_LOOP ( 'NONE', ( #27 ) ) ;
#140 = EDGE_LOOP ( 'NONE', ( #70 ) ) ;
#141 = PERSON_AND_ORGANIZATION_ROLE ( 'creator' ) ;
#142 = ORIENTED_EDGE ( 'NONE', *, *, #178, .F. ) ;
#143 = ADVANCED_FACE ( 'NONE', ( #151 ), #260, .F. ) ;
#144 = ORIENTED_EDGE ( 'NONE', *, *, #174, .T. ) ;
#145 = CARTESIAN_POINT ( 'NONE',  ( -4.392306573938732124E-31, 1.540613758064716018E-32, -1.258006601689034990E-16 ) ) ;
#146 = CYLINDRICAL_SURFACE ( 'NONE', #199, 1.313499999999999446 ) ;
#147 = FACE_BOUND ( 'NONE', #292, .T. ) ;
#148 = DIRECTION ( 'NONE',  ( 4.275831445896959482E-31, 1.000000000000000000, 1.224646799147353454E-16 ) ) ;
#149 = CIRCLE ( 'NONE', #136, 1.313499999999999890 ) ;
#150 = CONICAL_SURFACE ( 'NONE', #64, 1.313499999999998780, 0.5235987755982918213 ) ;
#151 = FACE_OUTER_BOUND ( 'NONE', #140, .T. ) ;
#152 = ADVANCED_FACE ( 'NONE', ( #244, #76 ), #146, .T. ) ;
#153 = DIRECTION ( 'NONE',  ( -3.491481338843133355E-15, 1.224646799147353454E-16, -1.000000000000000000 ) ) ;
#154 = APPLICATION_PROTOCOL_DEFINITION ( 'international standard', 'config_control_design', 1994, #83 ) ;
#155 = PERSON_AND_ORGANIZATION ( #90, #137 ) ;
#156 = CARTESIAN_POINT ( 'NONE',  ( 8.728703347107833388E-16, 1.313499999999998780, 0.2500000000000000000 ) ) ;
#157 = CARTESIAN_POINT ( 'NONE',  ( 8.728703347107833388E-14, 1.109999999999997211, 25.00000000000000000 ) ) ;
#158 = AXIS2_PLACEMENT_3D ( 'NONE', #52, #28, #259 ) ;
#159 = LOCAL_TIME ( 10, 36, 58.00000000000000000, #234 ) ;
#160 = ADVANCED_FACE ( 'NONE', ( #97, #171 ), #62, .T. ) ;
#161 = EDGE_LOOP ( 'NONE', ( #105 ) ) ;
#162 = PERSON_AND_ORGANIZATION ( #90, #137 ) ;
#163 = ORIENTED_EDGE ( 'NONE', *, *, #269, .F. ) ;
#164 = EDGE_LOOP ( 'NONE', ( #163 ) ) ;
#165 = PRODUCT_DEFINITION_FORMATION_WITH_SPECIFIED_SOURCE ( 'ANY', '', #4, .NOT_KNOWN. ) ;
#166 = CALENDAR_DATE ( 2021, 30, 11 ) ;
#167 = EDGE_LOOP ( 'NONE', ( #208 ) ) ;
#168 = FACE_OUTER_BOUND ( 'NONE', #282, .T. ) ;
#169 = DIRECTION ( 'NONE',  ( -3.491481338843133355E-15, 1.224646799147353454E-16, -1.000000000000000000 ) ) ;
#170 = CC_DESIGN_SECURITY_CLASSIFICATION ( #122, ( #165 ) ) ;
#171 = FACE_OUTER_BOUND ( 'NONE', #138, .T. ) ;
#172 = DIRECTION ( 'NONE',  ( -3.491481338843133355E-15, 1.224646799147353454E-16, -1.000000000000000000 ) ) ;
#173 = DIRECTION ( 'NONE',  ( 4.275831445896960358E-31, 1.000000000000000000, 1.224646799147353454E-16 ) ) ;
#174 = EDGE_CURVE ( 'NONE', #15, #15, #26, .T. ) ;
#175 = AXIS2_PLACEMENT_3D ( 'NONE', #295, #107, #224 ) ;
#176 = CARTESIAN_POINT ( 'NONE',  ( 3.491481338843133355E-14, -1.224646799147353454E-15, 10.00000000000000000 ) ) ;
#177 = APPROVAL_ROLE ( '' ) ;
#178 = EDGE_CURVE ( 'NONE', #60, #60, #246, .T. ) ;
#179 = VERTEX_POINT ( 'NONE', #248 ) ;
#180 = AXIS2_PLACEMENT_3D ( 'NONE', #245, #172, #217 ) ;
#181 = AXIS2_PLACEMENT_3D ( 'NONE', #263, #285, #148 ) ;
#182 = CARTESIAN_POINT ( 'NONE',  ( 3.491481338843133355E-14, 1.313499999999998780, 10.00000000000000000 ) ) ;
#183 = PERSON_AND_ORGANIZATION ( #90, #137 ) ;
#184 = ORIENTED_EDGE ( 'NONE', *, *, #294, .F. ) ;
#185 = ORIENTED_EDGE ( 'NONE', *, *, #294, .T. ) ;
#186 = PLANE ( 'NONE',  #254 ) ;
#187 = AXIS2_PLACEMENT_3D ( 'NONE', #198, #101, #216 ) ;
#188 = DATE_AND_TIME ( #115, #81 ) ;
#189 = ORIENTED_EDGE ( 'NONE', *, *, #178, .T. ) ;
#190 = CIRCLE ( 'NONE', #226, 1.500000000000001332 ) ;
#191 = EDGE_LOOP ( 'NONE', ( #77 ) ) ;
#192 = CARTESIAN_POINT ( 'NONE',  ( 8.728703347107827472E-16, -3.061616997868381785E-17, 0.2499999999999998335 ) ) ;
#193 = CLOSED_SHELL ( 'NONE', ( #75, #214, #152, #16 ) ) ;
#194 = DIRECTION ( 'NONE',  ( 3.491481338843133355E-15, -1.224646799147353454E-16, 1.000000000000000000 ) ) ;
#195 = PLANE ( 'NONE',  #181 ) ;
#196 = ADVANCED_FACE ( 'NONE', ( #124, #147 ), #36, .T. ) ;
#197 = CYLINDRICAL_SURFACE ( 'NONE', #287, 1.109999999999999432 ) ;
#198 = CARTESIAN_POINT ( 'NONE',  ( 2.129803616694311221E-13, -7.470345474798856659E-15, 61.00000000000000000 ) ) ;
#199 = AXIS2_PLACEMENT_3D ( 'NONE', #243, #32, #219 ) ;
#200 = PERSON_AND_ORGANIZATION ( #90, #137 ) ;
#201 = ORIENTED_EDGE ( 'NONE', *, *, #207, .F. ) ;
#202 = APPROVAL_ROLE ( '' ) ;
#203 = CC_DESIGN_APPROVAL ( #134, ( #257 ) ) ;
#204 = PERSON_AND_ORGANIZATION_ROLE ( 'creator' ) ;
#205 = APPROVAL ( #272, 'UNSPECIFIED' ) ;
#206 = FACE_OUTER_BOUND ( 'NONE', #2, .T. ) ;
#207 = EDGE_CURVE ( 'NONE', #84, #84, #190, .T. ) ;
#208 = ORIENTED_EDGE ( 'NONE', *, *, #45, .T. ) ;
#209 = AXIS2_PLACEMENT_3D ( 'NONE', #278, #68, #281 ) ;
#210 = COORDINATED_UNIVERSAL_TIME_OFFSET ( 1, 0, .AHEAD. ) ;
#211 = MANIFOLD_SOLID_BREP ( 'Corps-Déplacer/Copier1[1]', #262 ) ;
#212 = EDGE_LOOP ( 'NONE', ( #229 ) ) ;
#213 = APPROVAL_PERSON_ORGANIZATION ( #183, #205, #177 ) ;
#214 = ADVANCED_FACE ( 'NONE', ( #8, #220 ), #150, .T. ) ;
#215 = DIRECTION ( 'NONE',  ( 0.0000000000000000000, 1.000000000000000000, 0.0000000000000000000 ) ) ;
#216 = DIRECTION ( 'NONE',  ( 0.0000000000000000000, 1.000000000000000000, 0.0000000000000000000 ) ) ;
#217 = DIRECTION ( 'NONE',  ( 4.275831445896959482E-31, 1.000000000000000000, 1.224646799147353454E-16 ) ) ;
#218 = CC_DESIGN_DATE_AND_TIME_ASSIGNMENT ( #268, #222, ( #257 ) ) ;
#219 = DIRECTION ( 'NONE',  ( 4.275831445896959482E-31, 1.000000000000000000, 1.224646799147353454E-16 ) ) ;
#220 = FACE_OUTER_BOUND ( 'NONE', #274, .T. ) ;
#221 = APPLICATION_PROTOCOL_DEFINITION ( 'international standard', 'config_control_design', 1994, #130 ) ;
#222 = DATE_TIME_ROLE ( 'creation_date' ) ;
#223 = VERTEX_POINT ( 'NONE', #135 ) ;
#224 = DIRECTION ( 'NONE',  ( 1.000000000000000000, 0.0000000000000000000, 0.0000000000000000000 ) ) ;
#225 = LOCAL_TIME ( 10, 36, 58.00000000000000000, #210 ) ;
#226 = AXIS2_PLACEMENT_3D ( 'NONE', #6, #100, #98 ) ;
#227 = DESIGN_CONTEXT ( 'detailed design', #130, 'design' ) ;
#228 = DATE_TIME_ROLE ( 'classification_date' ) ;
#229 = ORIENTED_EDGE ( 'NONE', *, *, #45, .F. ) ;
#230 = FACE_OUTER_BOUND ( 'NONE', #96, .T. ) ;
#231 = AXIS2_PLACEMENT_3D ( 'NONE', #51, #43, #238 ) ;
#232 = APPROVAL_STATUS ( 'not_yet_approved' ) ;
#233 = FACE_BOUND ( 'NONE', #20, .T. ) ;
#234 = COORDINATED_UNIVERSAL_TIME_OFFSET ( 1, 0, .AHEAD. ) ;
#235 = DIRECTION ( 'NONE',  ( -4.275831445896959482E-31, -1.000000000000000000, -1.224646799147353454E-16 ) ) ;
#236 = ORIENTED_EDGE ( 'NONE', *, *, #99, .F. ) ;
#237 = ADVANCED_FACE ( 'NONE', ( #283, #3 ), #261, .T. ) ;
#238 = DIRECTION ( 'NONE',  ( 0.0000000000000000000, 1.000000000000000000, 0.0000000000000000000 ) ) ;
#239 = CC_DESIGN_APPROVAL ( #19, ( #122 ) ) ;
#240 = CARTESIAN_POINT ( 'NONE',  ( 9.562042165300179749E-14, -3.353912908188970182E-15, 27.38677723670281594 ) ) ;
#241 = DIRECTION ( 'NONE',  ( 0.0000000000000000000, -1.000000000000000000, 0.0000000000000000000 ) ) ;
#242 = ADVANCED_FACE ( 'NONE', ( #54 ), #195, .F. ) ;
#243 = CARTESIAN_POINT ( 'NONE',  ( 0.0000000000000000000, 0.0000000000000000000, 0.0000000000000000000 ) ) ;
#244 = FACE_OUTER_BOUND ( 'NONE', #161, .T. ) ;
#245 = CARTESIAN_POINT ( 'NONE',  ( -8.784613147877464248E-31, 3.081227516129432035E-32, -2.516013203378069980E-16 ) ) ;
#246 = CIRCLE ( 'NONE', #180, 1.169162432702594456 ) ;
#247 = CARTESIAN_POINT ( 'NONE',  ( -3.785471652766321837E-31, 1.169162432702594456, -1.084202172485504434E-16 ) ) ;
#248 = CARTESIAN_POINT ( 'NONE',  ( 9.562042165300179749E-14, 1.499999999999992673, 27.38677723670281594 ) ) ;
#249 = EDGE_CURVE ( 'NONE', #293, #293, #299, .T. ) ;
#250 = CONICAL_SURFACE ( 'NONE', #120, 1.200000000000001510, 0.7853981633974453924 ) ;
#251 = CC_DESIGN_APPROVAL ( #205, ( #165 ) ) ;
#252 = CARTESIAN_POINT ( 'NONE',  ( 2.129803616694311221E-13, -7.470345474798856659E-15, 61.00000000000000000 ) ) ;
#253 = DIRECTION ( 'NONE',  ( -3.491481338843133355E-15, 1.224646799147353454E-16, -1.000000000000000000 ) ) ;
#254 = AXIS2_PLACEMENT_3D ( 'NONE', #145, #92, #235 ) ;
#255 = EDGE_LOOP ( 'NONE', ( #189 ) ) ;
#256 = DIRECTION ( 'NONE',  ( 3.491481338843133355E-15, -1.224646799147353454E-16, 1.000000000000000000 ) ) ;
#257 = PRODUCT_DEFINITION ( 'UNKNOWN', '', #165, #227 ) ;
#258 = DIRECTION ( 'NONE',  ( -3.491481338843133355E-15, 1.224646799147353454E-16, -1.000000000000000000 ) ) ;
#259 = DIRECTION ( 'NONE',  ( -4.275831445896959482E-31, -1.000000000000000000, -1.224646799147353454E-16 ) ) ;
#260 = PLANE ( 'NONE',  #158 ) ;
#261 = CYLINDRICAL_SURFACE ( 'NONE', #87, 1.499999999999998668 ) ;
#262 = CLOSED_SHELL ( 'NONE', ( #143, #196, #119, #109, #160, #237, #61, #242 ) ) ;
#263 = CARTESIAN_POINT ( 'NONE',  ( 2.129803616694311221E-13, 8.998558695971049855E-33, 61.00000000000000000 ) ) ;
#264 = DIRECTION ( 'NONE',  ( -3.491481338843133355E-15, 1.224646799147353454E-16, -1.000000000000000000 ) ) ;
#265 = CC_DESIGN_PERSON_AND_ORGANIZATION_ASSIGNMENT ( #155, #291, ( #4 ) ) ;
#266 = CALENDAR_DATE ( 2021, 30, 11 ) ;
#267 = CIRCLE ( 'NONE', #187, 1.200000000000001510 ) ;
#268 = DATE_AND_TIME ( #266, #40 ) ;
#269 = EDGE_CURVE ( 'NONE', #89, #89, #14, .T. ) ;
#270 = APPROVAL_STATUS ( 'not_yet_approved' ) ;
#271 = VERTEX_POINT ( 'NONE', #37 ) ;
#272 = APPROVAL_STATUS ( 'not_yet_approved' ) ;
#273 = LOCAL_TIME ( 10, 36, 58.00000000000000000, #38 ) ;
#274 = EDGE_LOOP ( 'NONE', ( #144 ) ) ;
#275 = UNCERTAINTY_MEASURE_WITH_UNIT (LENGTH_MEASURE( 1.000000000000000082E-05 ), #35, 'distance_accuracy_value', 'NONE');
#276 = PERSON_AND_ORGANIZATION_ROLE ( 'classification_officer' ) ;
#277 = ORIENTED_EDGE ( 'NONE', *, *, #31, .T. ) ;
#278 = CARTESIAN_POINT ( 'NONE',  ( 8.728703347107833388E-14, -3.035766082959412415E-15, 25.00000000000000000 ) ) ;
#279 = CC_DESIGN_PERSON_AND_ORGANIZATION_ASSIGNMENT ( #302, #141, ( #165 ) ) ;
#280 = DATE_AND_TIME ( #42, #159 ) ;
#281 = DIRECTION ( 'NONE',  ( 4.275831445896959482E-31, 1.000000000000000000, 1.224646799147353454E-16 ) ) ;
#282 = EDGE_LOOP ( 'NONE', ( #201 ) ) ;
#283 = FACE_OUTER_BOUND ( 'NONE', #66, .T. ) ;
#284 = AXIS2_PLACEMENT_3D ( 'NONE', #53, #29, #5 ) ;
#285 = DIRECTION ( 'NONE',  ( -3.491481338843133355E-15, 1.224646799147353454E-16, -1.000000000000000000 ) ) ;
#286 = CARTESIAN_POINT ( 'NONE',  ( 8.728703347107827472E-16, -3.061616997868381785E-17, 0.2499999999999998335 ) ) ;
#287 = AXIS2_PLACEMENT_3D ( 'NONE', #78, #169, #55 ) ;
#288 = DIRECTION ( 'NONE',  ( -3.491481338843133355E-15, 1.224646799147353454E-16, -1.000000000000000000 ) ) ;
#289 = CIRCLE ( 'NONE', #111, 1.499999999999996003 ) ;
#290 = ORIENTED_EDGE ( 'NONE', *, *, #125, .T. ) ;
#291 = PERSON_AND_ORGANIZATION_ROLE ( 'design_owner' ) ;
#292 = EDGE_LOOP ( 'NONE', ( #277 ) ) ;
#293 = VERTEX_POINT ( 'NONE', #106 ) ;
#294 = EDGE_CURVE ( 'NONE', #179, #179, #289, .T. ) ;
#295 = CARTESIAN_POINT ( 'NONE',  ( 0.0000000000000000000, 0.0000000000000000000, 0.0000000000000000000 ) ) ;
#296 = APPROVAL_PERSON_ORGANIZATION ( #39, #134, #202 ) ;
#297 =( NAMED_UNIT ( * ) PLANE_ANGLE_UNIT ( ) SI_UNIT ( $, .RADIAN. ) );
#298 = EDGE_LOOP ( 'NONE', ( #300 ) ) ;
#299 = CIRCLE ( 'NONE', #1, 1.140384493975580504 ) ;
#300 = ORIENTED_EDGE ( 'NONE', *, *, #125, .F. ) ;
#301 = EDGE_LOOP ( 'NONE', ( #142 ) ) ;
#302 = PERSON_AND_ORGANIZATION ( #90, #137 ) ;
#303 = FACE_OUTER_BOUND ( 'NONE', #255, .T. ) ;
ENDSEC;
END-ISO-10303-21;
