ISO-10303-21;
HEADER;
FILE_DESCRIPTION (( 'STEP AP214' ),
    '1' );
FILE_NAME ('952016.step',
    '2024-04-04T13:05:36',
    ( '' ),
    ( '' ),
    'SwSTEP 2.0',
    'SolidWorks 2022',
    '' );
FILE_SCHEMA (( 'AUTOMOTIVE_DESIGN' ));
ENDSEC;

DATA;
#1 = CONICAL_SURFACE ( 'NONE', #147, 3.950000000000001066, 0.3450620389298179047 ) ;
#2 = FILL_AREA_STYLE ('',( #212 ) ) ;
#3 = DIRECTION ( 'NONE',  ( -3.491481338843133355E-15, 1.224646799147341374E-16, -1.000000000000000000 ) ) ;
#4 = CARTESIAN_POINT ( 'NONE',  ( 3.950000000000066347, 0.000000000000000000, 19.24999999999998579 ) ) ;
#5 = FILL_AREA_STYLE ('',( #244 ) ) ;
#6 = AXIS2_PLACEMENT_3D ( 'NONE', #122, #48, #171 ) ;
#7 = DIRECTION ( 'NONE',  ( 0.000000000000000000, 1.000000000000000000, 0.000000000000000000 ) ) ;
#8 = ADVANCED_FACE ( 'NONE', ( #24 ), #1, .T. ) ;
#9 = DIRECTION ( 'NONE',  ( 3.491481338843133355E-15, -0.000000000000000000, 1.000000000000000000 ) ) ;
#10 =( NAMED_UNIT ( * ) PLANE_ANGLE_UNIT ( ) SI_UNIT ( $, .RADIAN. ) );
#11 = DIRECTION ( 'NONE',  ( -3.491481338843133355E-15, 0.000000000000000000, -1.000000000000000000 ) ) ;
#12 = PLANE ( 'NONE',  #238 ) ;
#13 = EDGE_CURVE ( 'NONE', #340, #43, #299, .T. ) ;
#14 = EDGE_LOOP ( 'NONE', ( #279, #334, #307, #143 ) ) ;
#15 = VERTEX_POINT ( 'NONE', #78 ) ;
#16 =( GEOMETRIC_REPRESENTATION_CONTEXT ( 3 ) GLOBAL_UNCERTAINTY_ASSIGNED_CONTEXT ( ( #141 ) ) GLOBAL_UNIT_ASSIGNED_CONTEXT ( ( #105, #261, #152 ) ) REPRESENTATION_CONTEXT ( 'NONE', 'WORKASPACE' ) );
#17 = EDGE_CURVE ( 'NONE', #216, #15, #142, .T. ) ;
#18 = FILL_AREA_STYLE_COLOUR ( '', #73 ) ;
#19 = PRESENTATION_LAYER_ASSIGNMENT (  '', '', ( #79 ) ) ;
#20 = SURFACE_SIDE_STYLE ('',( #249 ) ) ;
#21 = CARTESIAN_POINT ( 'NONE',  ( 2.199633243471174140E-13, -7.715274834628325378E-15, 63.00000000000000000 ) ) ;
#22 = PRODUCT_DEFINITION_CONTEXT ( 'detailed design', #295, 'design' ) ;
#23 = EDGE_CURVE ( 'NONE', #214, #124, #127, .T. ) ;
#24 = FACE_OUTER_BOUND ( 'NONE', #191, .T. ) ;
#25 = SURFACE_SIDE_STYLE ('',( #45 ) ) ;
#26 = DIRECTION ( 'NONE',  ( 3.491481338843133355E-15, -1.224646799147353207E-16, 1.000000000000000000 ) ) ;
#27 = ORIENTED_EDGE ( 'NONE', *, *, #82, .F. ) ;
#28 = DIRECTION ( 'NONE',  ( 1.000000000000000000, 0.000000000000000000, -3.513364001978344456E-15 ) ) ;
#29 = SHAPE_DEFINITION_REPRESENTATION ( #271, #288 ) ;
#30 = AXIS2_PLACEMENT_3D ( 'NONE', #118, #77, #284 ) ;
#31 = AXIS2_PLACEMENT_3D ( 'NONE', #197, #285, #28 ) ;
#32 = PRODUCT_DEFINITION ( 'UNKNOWN', '', #195, #22 ) ;
#33 = DIRECTION ( 'NONE',  ( 1.000000000000000000, 0.000000000000000000, -3.513364001978343667E-15 ) ) ;
#34 = FACE_OUTER_BOUND ( 'NONE', #188, .T. ) ;
#35 = CARTESIAN_POINT ( 'NONE',  ( 6.769669573857244863E-14, -2.374480448363633282E-15, 19.38910427085457400 ) ) ;
#36 = CARTESIAN_POINT ( 'NONE',  ( 1.429232762269665681E-13, -3.999999999999998224, 19.38910427085457400 ) ) ;
#37 = AXIS2_PLACEMENT_3D ( 'NONE', #311, #257, #255 ) ;
#38 = ORIENTED_EDGE ( 'NONE', *, *, #327, .T. ) ;
#39 = CARTESIAN_POINT ( 'NONE',  ( -3.949999999999932676, 4.837354856632044071E-16, 19.25000000000001421 ) ) ;
#40 = PRODUCT ( '952016', '952016', '', ( #150 ) ) ;
#41 = EDGE_LOOP ( 'NONE', ( #243, #100 ) ) ;
#42 = PLANE ( 'NONE',  #137 ) ;
#43 = VERTEX_POINT ( 'NONE', #222 ) ;
#44 = VERTEX_POINT ( 'NONE', #313 ) ;
#45 = SURFACE_STYLE_FILL_AREA ( #5 ) ;
#46 = CIRCLE ( 'NONE', #37, 3.199999999999986855 ) ;
#47 = EDGE_LOOP ( 'NONE', ( #140, #343, #169, #339 ) ) ;
#48 = DIRECTION ( 'NONE',  ( -3.491481338843133355E-15, 1.224646799147353207E-16, -1.000000000000000000 ) ) ;
#49 = ORIENTED_EDGE ( 'NONE', *, *, #166, .T. ) ;
#50 = CIRCLE ( 'NONE', #248, 3.999999999999995559 ) ;
#51 = EDGE_CURVE ( 'NONE', #43, #44, #52, .T. ) ;
#52 = LINE ( 'NONE', #98, #215 ) ;
#53 = DIRECTION ( 'NONE',  ( 1.000000000000000000, 0.000000000000000000, 0.000000000000000000 ) ) ;
#54 = SURFACE_STYLE_FILL_AREA ( #2 ) ;
#55 = MANIFOLD_SOLID_BREP ( 'Corps-Déplacer/Copier1[1]', #246 ) ;
#56 = SURFACE_SIDE_STYLE ('',( #54 ) ) ;
#57 = COLOUR_RGB ( '',1.000000000000000000, 1.000000000000000000, 1.000000000000000000 ) ;
#58 = AXIS2_PLACEMENT_3D ( 'NONE', #177, #264, #33 ) ;
#59 = DIRECTION ( 'NONE',  ( 0.000000000000000000, 1.000000000000000000, 0.000000000000000000 ) ) ;
#60 = ADVANCED_FACE ( 'NONE', ( #62 ), #149, .T. ) ;
#61 = DIRECTION ( 'NONE',  ( 3.327098416510789582E-15, 0.3382550599108808398, 0.9410544694355830186 ) ) ;
#62 = FACE_OUTER_BOUND ( 'NONE', #252, .T. ) ;
#63 = LINE ( 'NONE', #131, #84 ) ;
#64 = AXIS2_PLACEMENT_3D ( 'NONE', #106, #294, #180 ) ;
#65 =( GEOMETRIC_REPRESENTATION_CONTEXT ( 3 ) GLOBAL_UNCERTAINTY_ASSIGNED_CONTEXT ( ( #309 ) ) GLOBAL_UNIT_ASSIGNED_CONTEXT ( ( #172, #318, #287 ) ) REPRESENTATION_CONTEXT ( 'NONE', 'WORKASPACE' ) );
#66 = MANIFOLD_SOLID_BREP ( 'Corps-Déplacer/Copier1[2]', #241 ) ;
#67 = CARTESIAN_POINT ( 'NONE',  ( 6.721101577273031393E-14, -3.950000000000003730, 19.25000000000000000 ) ) ;
#68 = EDGE_LOOP ( 'NONE', ( #190, #278, #184, #240 ) ) ;
#69 = AXIS2_PLACEMENT_3D ( 'NONE', #332, #26, #174 ) ;
#70 = ADVANCED_FACE ( 'NONE', ( #320 ), #231, .T. ) ;
#71 = ORIENTED_EDGE ( 'NONE', *, *, #304, .F. ) ;
#72 = CARTESIAN_POINT ( 'NONE',  ( 6.721101577273031393E-14, -2.357445088358654757E-15, 19.25000000000000000 ) ) ;
#73 = COLOUR_RGB ( '',1.000000000000000000, 1.000000000000000000, 1.000000000000000000 ) ;
#74 = EDGE_LOOP ( 'NONE', ( #217, #314, #161, #275 ) ) ;
#75 = CYLINDRICAL_SURFACE ( 'NONE', #276, 3.999999999999998224 ) ;
#76 = ADVANCED_FACE ( 'NONE', ( #235 ), #90, .T. ) ;
#77 = DIRECTION ( 'NONE',  ( 3.491481338843133355E-15, -0.000000000000000000, 1.000000000000000000 ) ) ;
#78 = CARTESIAN_POINT ( 'NONE',  ( 3.950000000000000178, 0.000000000000000000, -1.379135128843037675E-14 ) ) ;
#79 = STYLED_ITEM ( 'NONE', ( #258 ), #288 ) ;
#80 = FACE_OUTER_BOUND ( 'NONE', #274, .T. ) ;
#81 = CARTESIAN_POINT ( 'NONE',  ( 2.171701392760428316E-13, -7.617303090696535366E-15, 62.19999999999998153 ) ) ;
#82 = EDGE_CURVE ( 'NONE', #200, #138, #50, .T. ) ;
#83 = AXIS2_PLACEMENT_3D ( 'NONE', #167, #170, #221 ) ;
#84 = VECTOR ( 'NONE', #272, 1000.000000000000000 ) ;
#85 = CARTESIAN_POINT ( 'NONE',  ( 2.171701392760428316E-13, -7.617303090696535366E-15, 62.19999999999998153 ) ) ;
#86 = DIRECTION ( 'NONE',  ( -3.491481338843133355E-15, 1.224646799147341374E-16, -1.000000000000000000 ) ) ;
#87 = DIRECTION ( 'NONE',  ( -3.491481338843133355E-15, 1.224646799147353207E-16, -1.000000000000000000 ) ) ;
#88 = ORIENTED_EDGE ( 'NONE', *, *, #205, .T. ) ;
#89 = CARTESIAN_POINT ( 'NONE',  ( 3.950000000000065459, 0.000000000000000000, 19.24999999999998579 ) ) ;
#90 = CONICAL_SURFACE ( 'NONE', #179, 3.999999999999998224, 0.7853981633974456145 ) ;
#91 = ORIENTED_EDGE ( 'NONE', *, *, #23, .T. ) ;
#92 = VERTEX_POINT ( 'NONE', #233 ) ;
#93 = ORIENTED_EDGE ( 'NONE', *, *, #336, .T. ) ;
#94 = AXIS2_PLACEMENT_3D ( 'NONE', #159, #325, #181 ) ;
#95 = ORIENTED_EDGE ( 'NONE', *, *, #17, .T. ) ;
#96 = CONICAL_SURFACE ( 'NONE', #148, 3.950000000000001066, 0.3450620389298179047 ) ;
#97 = FACE_OUTER_BOUND ( 'NONE', #335, .T. ) ;
#98 = CARTESIAN_POINT ( 'NONE',  ( 2.171701392760428316E-13, 3.999999999999990674, 62.19999999999998153 ) ) ;
#99 = CARTESIAN_POINT ( 'NONE',  ( 0.000000000000000000, 0.000000000000000000, 0.000000000000000000 ) ) ;
#100 = ORIENTED_EDGE ( 'NONE', *, *, #17, .F. ) ;
#101 =( NAMED_UNIT ( * ) SI_UNIT ( $, .STERADIAN. ) SOLID_ANGLE_UNIT ( ) );
#102 = ADVANCED_FACE ( 'NONE', ( #289 ), #209, .T. ) ;
#103 = CARTESIAN_POINT ( 'NONE',  ( 2.171701392760428316E-13, -7.617303090696535366E-15, 62.19999999999998153 ) ) ;
#104 = DIRECTION ( 'NONE',  ( 0.000000000000000000, 1.000000000000000000, 0.000000000000000000 ) ) ;
#105 =( LENGTH_UNIT ( ) NAMED_UNIT ( * ) SI_UNIT ( .MILLI., .METRE. ) );
#106 = CARTESIAN_POINT ( 'NONE',  ( 6.769669573857244863E-14, -2.374480448363633282E-15, 19.38910427085457400 ) ) ;
#107 =( GEOMETRIC_REPRESENTATION_CONTEXT ( 3 ) GLOBAL_UNCERTAINTY_ASSIGNED_CONTEXT ( ( #228 ) ) GLOBAL_UNIT_ASSIGNED_CONTEXT ( ( #329, #10, #337 ) ) REPRESENTATION_CONTEXT ( 'NONE', 'WORKASPACE' ) );
#108 = CARTESIAN_POINT ( 'NONE',  ( 2.137915722948479303E-31, 3.950000000000000178, 6.123233995736767268E-17 ) ) ;
#109 = DIRECTION ( 'NONE',  ( -1.000000000000000000, 0.000000000000000000, 3.491481338843133355E-15 ) ) ;
#110 = EDGE_LOOP ( 'NONE', ( #93, #144 ) ) ;
#111 = LINE ( 'NONE', #4, #312 ) ;
#112 = PRESENTATION_LAYER_ASSIGNMENT (  '', '', ( #260 ) ) ;
#113 = CIRCLE ( 'NONE', #153, 3.950000000000000178 ) ;
#114 = ORIENTED_EDGE ( 'NONE', *, *, #117, .T. ) ;
#115 = EDGE_CURVE ( 'NONE', #44, #92, #300, .T. ) ;
#116 = ORIENTED_EDGE ( 'NONE', *, *, #115, .T. ) ;
#117 = EDGE_CURVE ( 'NONE', #92, #44, #185, .T. ) ;
#118 = CARTESIAN_POINT ( 'NONE',  ( 6.721101577273031393E-14, 0.000000000000000000, 19.25000000000000000 ) ) ;
#119 =( GEOMETRIC_REPRESENTATION_CONTEXT ( 3 ) GLOBAL_UNCERTAINTY_ASSIGNED_CONTEXT ( ( #204 ) ) GLOBAL_UNIT_ASSIGNED_CONTEXT ( ( #126, #154, #101 ) ) REPRESENTATION_CONTEXT ( 'NONE', 'WORKASPACE' ) );
#120 = DIRECTION ( 'NONE',  ( 3.491481338843133355E-15, -1.224646799147353207E-16, 1.000000000000000000 ) ) ;
#121 = AXIS2_PLACEMENT_3D ( 'NONE', #103, #86, #207 ) ;
#122 = CARTESIAN_POINT ( 'NONE',  ( 6.721101577273031393E-14, -2.357445088358654757E-15, 19.25000000000000000 ) ) ;
#123 = DIRECTION ( 'NONE',  ( -3.491481338843133355E-15, 1.224646799147353207E-16, -1.000000000000000000 ) ) ;
#124 = VERTEX_POINT ( 'NONE', #324 ) ;
#125 = DIRECTION ( 'NONE',  ( -3.491481338843133355E-15, 1.224646799147353207E-16, -1.000000000000000000 ) ) ;
#126 =( LENGTH_UNIT ( ) NAMED_UNIT ( * ) SI_UNIT ( .MILLI., .METRE. ) );
#127 = CIRCLE ( 'NONE', #30, 3.949999999999998845 ) ;
#128 = DIRECTION ( 'NONE',  ( 1.000000000000000000, 0.000000000000000000, -3.491481338843133355E-15 ) ) ;
#129 = DIRECTION ( 'NONE',  ( -1.865174681370262988E-14, -1.000000000000000000, 0.000000000000000000 ) ) ;
#130 = APPLICATION_CONTEXT ( 'automotive_design' ) ;
#131 = CARTESIAN_POINT ( 'NONE',  ( 2.176599979957017722E-13, -4.000000000000006217, 62.19999999999998153 ) ) ;
#132 = CARTESIAN_POINT ( 'NONE',  ( -3.950000000000000178, 4.837354856632087459E-16, 1.379135128843037991E-14 ) ) ;
#133 = VECTOR ( 'NONE', #192, 1000.000000000000000 ) ;
#134 = DIRECTION ( 'NONE',  ( 4.275831445896958607E-31, 1.000000000000000000, 1.224646799147353207E-16 ) ) ;
#135 = DIRECTION ( 'NONE',  ( 0.000000000000000000, -1.000000000000000000, 0.000000000000000000 ) ) ;
#136 = ORIENTED_EDGE ( 'NONE', *, *, #230, .F. ) ;
#137 = AXIS2_PLACEMENT_3D ( 'NONE', #268, #11, #109 ) ;
#138 = VERTEX_POINT ( 'NONE', #236 ) ;
#139 = ADVANCED_FACE ( 'NONE', ( #326 ), #96, .T. ) ;
#140 = ORIENTED_EDGE ( 'NONE', *, *, #256, .F. ) ;
#141 = UNCERTAINTY_MEASURE_WITH_UNIT (LENGTH_MEASURE( 1.000000000000000082E-05 ), #105, 'distance_accuracy_value', 'NONE');
#142 = CIRCLE ( 'NONE', #83, 3.950000000000000178 ) ;
#143 = ORIENTED_EDGE ( 'NONE', *, *, #51, .F. ) ;
#144 = ORIENTED_EDGE ( 'NONE', *, *, #13, .T. ) ;
#145 = DIRECTION ( 'NONE',  ( 1.000000000000000000, 0.000000000000000000, -3.491481338843133355E-15 ) ) ;
#146 = CARTESIAN_POINT ( 'NONE',  ( 0.000000000000000000, 0.000000000000000000, 0.000000000000000000 ) ) ;
#147 = AXIS2_PLACEMENT_3D ( 'NONE', #72, #316, #196 ) ;
#148 = AXIS2_PLACEMENT_3D ( 'NONE', #297, #158, #135 ) ;
#149 = CYLINDRICAL_SURFACE ( 'NONE', #194, 3.949999999999999734 ) ;
#150 = PRODUCT_CONTEXT ( 'NONE', #130, 'mechanical' ) ;
#151 = DIRECTION ( 'NONE',  ( -3.491481338843133355E-15, 1.224646799147341374E-16, -1.000000000000000000 ) ) ;
#152 =( NAMED_UNIT ( * ) SI_UNIT ( $, .STERADIAN. ) SOLID_ANGLE_UNIT ( ) );
#153 = AXIS2_PLACEMENT_3D ( 'NONE', #306, #201, #145 ) ;
#154 =( NAMED_UNIT ( * ) PLANE_ANGLE_UNIT ( ) SI_UNIT ( $, .RADIAN. ) );
#155 = DIRECTION ( 'NONE',  ( 3.491481338843133355E-15, -0.000000000000000000, 1.000000000000000000 ) ) ;
#156 = FACE_OUTER_BOUND ( 'NONE', #41, .T. ) ;
#157 = ADVANCED_FACE ( 'NONE', ( #193 ), #42, .F. ) ;
#158 = DIRECTION ( 'NONE',  ( 3.491481338843133355E-15, -1.224646799147353207E-16, 1.000000000000000000 ) ) ;
#159 = CARTESIAN_POINT ( 'NONE',  ( 0.000000000000000000, 0.000000000000000000, 0.000000000000000000 ) ) ;
#160 = ADVANCED_FACE ( 'NONE', ( #302 ), #273, .T. ) ;
#161 = ORIENTED_EDGE ( 'NONE', *, *, #202, .T. ) ;
#162 = ORIENTED_EDGE ( 'NONE', *, *, #267, .F. ) ;
#163 = CIRCLE ( 'NONE', #242, 3.950000000000001066 ) ;
#164 = ADVANCED_FACE ( 'NONE', ( #97 ), #75, .T. ) ;
#165 = ORIENTED_EDGE ( 'NONE', *, *, #327, .F. ) ;
#166 = EDGE_CURVE ( 'NONE', #92, #200, #226, .T. ) ;
#167 = CARTESIAN_POINT ( 'NONE',  ( 0.000000000000000000, 0.000000000000000000, 0.000000000000000000 ) ) ;
#168 = AXIS2_PLACEMENT_3D ( 'NONE', #21, #120, #342 ) ;
#169 = ORIENTED_EDGE ( 'NONE', *, *, #51, .T. ) ;
#170 = DIRECTION ( 'NONE',  ( 3.491481338843133355E-15, -0.000000000000000000, 1.000000000000000000 ) ) ;
#171 = DIRECTION ( 'NONE',  ( 0.000000000000000000, 1.000000000000000000, 0.000000000000000000 ) ) ;
#172 =( LENGTH_UNIT ( ) NAMED_UNIT ( * ) SI_UNIT ( .MILLI., .METRE. ) );
#173 = DIRECTION ( 'NONE',  ( 1.000000000000000000, 0.000000000000000000, -3.513364001978343667E-15 ) ) ;
#174 = DIRECTION ( 'NONE',  ( -4.275831445896958607E-31, -1.000000000000000000, -1.224646799147353207E-16 ) ) ;
#175 = DIRECTION ( 'NONE',  ( 0.000000000000000000, 1.000000000000000000, 0.000000000000000000 ) ) ;
#176 = PLANE ( 'NONE',  #283 ) ;
#177 = CARTESIAN_POINT ( 'NONE',  ( 6.721101577273031393E-14, 0.000000000000000000, 19.25000000000000000 ) ) ;
#178 = STYLED_ITEM ( 'NONE', ( #266 ), #66 ) ;
#179 = AXIS2_PLACEMENT_3D ( 'NONE', #85, #3, #59 ) ;
#180 = DIRECTION ( 'NONE',  ( 0.000000000000000000, 1.000000000000000000, 0.000000000000000000 ) ) ;
#181 = DIRECTION ( 'NONE',  ( 4.275831445896958607E-31, 1.000000000000000000, 1.224646799147353207E-16 ) ) ;
#182 = CARTESIAN_POINT ( 'NONE',  ( 2.171701392760428316E-13, -7.617303090696535366E-15, 62.19999999999998153 ) ) ;
#183 = EDGE_CURVE ( 'NONE', #124, #214, #224, .T. ) ;
#184 = ORIENTED_EDGE ( 'NONE', *, *, #23, .F. ) ;
#185 = CIRCLE ( 'NONE', #292, 3.999999999999998224 ) ;
#186 = DIRECTION ( 'NONE',  ( 3.285674118869263394E-15, -0.3382550599108810063, 0.9410544694355829076 ) ) ;
#187 = VERTEX_POINT ( 'NONE', #229 ) ;
#188 = EDGE_LOOP ( 'NONE', ( #38, #88 ) ) ;
#189 = VECTOR ( 'NONE', #61, 999.9999999999998863 ) ;
#190 = ORIENTED_EDGE ( 'NONE', *, *, #315, .T. ) ;
#191 = EDGE_LOOP ( 'NONE', ( #136, #165, #305, #333 ) ) ;
#192 = DIRECTION ( 'NONE',  ( -3.491481338843133355E-15, 1.224646799147353207E-16, -1.000000000000000000 ) ) ;
#193 = FACE_OUTER_BOUND ( 'NONE', #254, .T. ) ;
#194 = AXIS2_PLACEMENT_3D ( 'NONE', #232, #203, #173 ) ;
#195 = PRODUCT_DEFINITION_FORMATION_WITH_SPECIFIED_SOURCE ( 'ANY', '', #40, .NOT_KNOWN. ) ;
#196 = DIRECTION ( 'NONE',  ( 0.000000000000000000, -1.000000000000000000, 0.000000000000000000 ) ) ;
#197 = CARTESIAN_POINT ( 'NONE',  ( 6.721101577273031393E-14, 0.000000000000000000, 19.25000000000000000 ) ) ;
#198 = SURFACE_STYLE_USAGE ( .BOTH. , #20 ) ;
#199 = APPLICATION_PROTOCOL_DEFINITION ( 'draft international standard', 'automotive_design', 1998, #295 ) ;
#200 = VERTEX_POINT ( 'NONE', #36 ) ;
#201 = DIRECTION ( 'NONE',  ( 3.491481338843133355E-15, -0.000000000000000000, 1.000000000000000000 ) ) ;
#202 = EDGE_CURVE ( 'NONE', #138, #200, #323, .T. ) ;
#203 = DIRECTION ( 'NONE',  ( 3.491481338843133355E-15, -0.000000000000000000, 1.000000000000000000 ) ) ;
#204 = UNCERTAINTY_MEASURE_WITH_UNIT (LENGTH_MEASURE( 1.000000000000000082E-05 ), #126, 'distance_accuracy_value', 'NONE');
#205 = EDGE_CURVE ( 'NONE', #227, #187, #163, .T. ) ;
#206 = PRESENTATION_STYLE_ASSIGNMENT (( #198 ) ) ;
#207 = DIRECTION ( 'NONE',  ( 1.953992523340275827E-14, -1.000000000000000000, 0.000000000000000000 ) ) ;
#208 = LINE ( 'NONE', #322, #133 ) ;
#209 = CYLINDRICAL_SURFACE ( 'NONE', #58, 3.949999999999999734 ) ;
#210 = VECTOR ( 'NONE', #186, 1000.000000000000000 ) ;
#211 = CARTESIAN_POINT ( 'NONE',  ( 6.794065285831246675E-14, 3.949999999999998845, 19.25000000000000000 ) ) ;
#212 = FILL_AREA_STYLE_COLOUR ( '', #57 ) ;
#213 = ORIENTED_EDGE ( 'NONE', *, *, #202, .F. ) ;
#214 = VERTEX_POINT ( 'NONE', #89 ) ;
#215 = VECTOR ( 'NONE', #338, 1000.000000000000000 ) ;
#216 = VERTEX_POINT ( 'NONE', #132 ) ;
#217 = ORIENTED_EDGE ( 'NONE', *, *, #205, .F. ) ;
#218 = EDGE_CURVE ( 'NONE', #15, #214, #111, .T. ) ;
#219 = PRESENTATION_LAYER_ASSIGNMENT (  '', '', ( #178 ) ) ;
#220 = COLOUR_RGB ( '',1.000000000000000000, 1.000000000000000000, 1.000000000000000000 ) ;
#221 = DIRECTION ( 'NONE',  ( 1.000000000000000000, 0.000000000000000000, -3.491481338843133355E-15 ) ) ;
#222 = CARTESIAN_POINT ( 'NONE',  ( 2.185667318115801102E-13, 3.199999999999978861, 63.00000000000000000 ) ) ;
#223 = DIRECTION ( 'NONE',  ( 4.275831445896958607E-31, 1.000000000000000000, 1.224646799147353207E-16 ) ) ;
#224 = CIRCLE ( 'NONE', #31, 3.949999999999998845 ) ;
#225 = SURFACE_STYLE_USAGE ( .BOTH. , #25 ) ;
#226 = LINE ( 'NONE', #317, #319 ) ;
#227 = VERTEX_POINT ( 'NONE', #211 ) ;
#228 = UNCERTAINTY_MEASURE_WITH_UNIT (LENGTH_MEASURE( 1.000000000000000082E-05 ), #329, 'distance_accuracy_value', 'NONE');
#229 = CARTESIAN_POINT ( 'NONE',  ( 6.745385575565137497E-14, -3.950000000000003730, 19.25000000000000000 ) ) ;
#230 = EDGE_CURVE ( 'NONE', #227, #138, #296, .T. ) ;
#231 = CONICAL_SURFACE ( 'NONE', #341, 3.999999999999998224, 0.7853981633974456145 ) ;
#232 = CARTESIAN_POINT ( 'NONE',  ( 6.721101577273031393E-14, 0.000000000000000000, 19.25000000000000000 ) ) ;
#233 = CARTESIAN_POINT ( 'NONE',  ( 1.429232762269665428E-13, -4.000000000000006217, 62.19999999999998153 ) ) ;
#234 = EDGE_CURVE ( 'NONE', #187, #200, #321, .T. ) ;
#235 = FACE_OUTER_BOUND ( 'NONE', #47, .T. ) ;
#236 = CARTESIAN_POINT ( 'NONE',  ( 6.769669573857244863E-14, 3.999999999999993339, 19.38910427085457400 ) ) ;
#237 = MECHANICAL_DESIGN_GEOMETRIC_PRESENTATION_REPRESENTATION (  '', ( #178 ), #16 ) ;
#238 = AXIS2_PLACEMENT_3D ( 'NONE', #239, #87, #134 ) ;
#239 = CARTESIAN_POINT ( 'NONE',  ( 6.721101577273031393E-14, 3.949999999999998845, 19.25000000000000000 ) ) ;
#240 = ORIENTED_EDGE ( 'NONE', *, *, #218, .F. ) ;
#241 = CLOSED_SHELL ( 'NONE', ( #102, #60, #157, #277 ) ) ;
#242 = AXIS2_PLACEMENT_3D ( 'NONE', #328, #270, #104 ) ;
#243 = ORIENTED_EDGE ( 'NONE', *, *, #315, .F. ) ;
#244 = FILL_AREA_STYLE_COLOUR ( '', #220 ) ;
#245 = ORIENTED_EDGE ( 'NONE', *, *, #218, .T. ) ;
#246 = CLOSED_SHELL ( 'NONE', ( #70, #139, #164, #250, #160, #262, #8, #76 ) ) ;
#247 = CIRCLE ( 'NONE', #6, 3.950000000000001066 ) ;
#248 = AXIS2_PLACEMENT_3D ( 'NONE', #35, #259, #175 ) ;
#249 = SURFACE_STYLE_FILL_AREA ( #280 ) ;
#250 = ADVANCED_FACE ( 'NONE', ( #34 ), #12, .T. ) ;
#251 = ORIENTED_EDGE ( 'NONE', *, *, #183, .T. ) ;
#252 = EDGE_LOOP ( 'NONE', ( #162, #95, #245, #303 ) ) ;
#253 = VECTOR ( 'NONE', #9, 1000.000000000000000 ) ;
#254 = EDGE_LOOP ( 'NONE', ( #91, #251 ) ) ;
#255 = DIRECTION ( 'NONE',  ( 0.000000000000000000, -1.000000000000000000, 0.000000000000000000 ) ) ;
#256 = EDGE_CURVE ( 'NONE', #340, #92, #63, .T. ) ;
#257 = DIRECTION ( 'NONE',  ( 3.491481338843133355E-15, -1.224646799147353207E-16, 1.000000000000000000 ) ) ;
#258 = PRESENTATION_STYLE_ASSIGNMENT (( #225 ) ) ;
#259 = DIRECTION ( 'NONE',  ( -3.491481338843133355E-15, 1.224646799147353207E-16, -1.000000000000000000 ) ) ;
#260 = STYLED_ITEM ( 'NONE', ( #206 ), #55 ) ;
#261 =( NAMED_UNIT ( * ) PLANE_ANGLE_UNIT ( ) SI_UNIT ( $, .RADIAN. ) );
#262 = ADVANCED_FACE ( 'NONE', ( #80 ), #301, .T. ) ;
#263 = DIRECTION ( 'NONE',  ( 0.000000000000000000, 0.000000000000000000, 1.000000000000000000 ) ) ;
#264 = DIRECTION ( 'NONE',  ( 3.491481338843133355E-15, -0.000000000000000000, 1.000000000000000000 ) ) ;
#265 = CARTESIAN_POINT ( 'NONE',  ( 6.769475125839351903E-14, 3.949999999999998845, 19.25000000000000000 ) ) ;
#266 = PRESENTATION_STYLE_ASSIGNMENT (( #286 ) ) ;
#267 = EDGE_CURVE ( 'NONE', #216, #124, #298, .T. ) ;
#268 = CARTESIAN_POINT ( 'NONE',  ( 6.721101577273031393E-14, 3.949999999999998845, 19.25000000000000000 ) ) ;
#269 = MECHANICAL_DESIGN_GEOMETRIC_PRESENTATION_REPRESENTATION (  '', ( #79 ), #65 ) ;
#270 = DIRECTION ( 'NONE',  ( -3.491481338843133355E-15, 1.224646799147353207E-16, -1.000000000000000000 ) ) ;
#271 = PRODUCT_DEFINITION_SHAPE ( 'NONE', 'NONE',  #32 ) ;
#272 = DIRECTION ( 'NONE',  ( -2.382254525458723780E-15, -0.7071067811865454633, -0.7071067811865495711 ) ) ;
#273 = PLANE ( 'NONE',  #69 ) ;
#274 = EDGE_LOOP ( 'NONE', ( #308, #114, #281, #27 ) ) ;
#275 = ORIENTED_EDGE ( 'NONE', *, *, #234, .F. ) ;
#276 = AXIS2_PLACEMENT_3D ( 'NONE', #146, #123, #223 ) ;
#277 = ADVANCED_FACE ( 'NONE', ( #156 ), #176, .F. ) ;
#278 = ORIENTED_EDGE ( 'NONE', *, *, #267, .T. ) ;
#279 = ORIENTED_EDGE ( 'NONE', *, *, #13, .F. ) ;
#280 = FILL_AREA_STYLE ('',( #18 ) ) ;
#281 = ORIENTED_EDGE ( 'NONE', *, *, #304, .T. ) ;
#282 = CARTESIAN_POINT ( 'NONE',  ( 2.190076046592731416E-13, -3.199999999999994404, 63.00000000000000000 ) ) ;
#283 = AXIS2_PLACEMENT_3D ( 'NONE', #108, #290, #128 ) ;
#284 = DIRECTION ( 'NONE',  ( 1.000000000000000000, 0.000000000000000000, -3.513364001978344456E-15 ) ) ;
#285 = DIRECTION ( 'NONE',  ( 3.491481338843133355E-15, -0.000000000000000000, 1.000000000000000000 ) ) ;
#286 = SURFACE_STYLE_USAGE ( .BOTH. , #56 ) ;
#287 =( NAMED_UNIT ( * ) SI_UNIT ( $, .STERADIAN. ) SOLID_ANGLE_UNIT ( ) );
#288 = ADVANCED_BREP_SHAPE_REPRESENTATION ( '952016', ( #55, #66, #330 ), #107 ) ;
#289 = FACE_OUTER_BOUND ( 'NONE', #68, .T. ) ;
#290 = DIRECTION ( 'NONE',  ( 3.491481338843133355E-15, -0.000000000000000000, 1.000000000000000000 ) ) ;
#291 = APPLICATION_PROTOCOL_DEFINITION ( 'draft international standard', 'automotive_design', 1998, #130 ) ;
#292 = AXIS2_PLACEMENT_3D ( 'NONE', #81, #293, #129 ) ;
#293 = DIRECTION ( 'NONE',  ( -3.491481338843133355E-15, 1.224646799147341374E-16, -1.000000000000000000 ) ) ;
#294 = DIRECTION ( 'NONE',  ( -3.491481338843133355E-15, 1.224646799147353207E-16, -1.000000000000000000 ) ) ;
#295 = APPLICATION_CONTEXT ( 'automotive_design' ) ;
#296 = LINE ( 'NONE', #265, #189 ) ;
#297 = CARTESIAN_POINT ( 'NONE',  ( 6.721101577273031393E-14, -2.357445088358654757E-15, 19.25000000000000000 ) ) ;
#298 = LINE ( 'NONE', #39, #253 ) ;
#299 = CIRCLE ( 'NONE', #168, 3.199999999999986855 ) ;
#300 = CIRCLE ( 'NONE', #121, 3.999999999999998224 ) ;
#301 = CYLINDRICAL_SURFACE ( 'NONE', #94, 3.999999999999998224 ) ;
#302 = FACE_OUTER_BOUND ( 'NONE', #110, .T. ) ;
#303 = ORIENTED_EDGE ( 'NONE', *, *, #183, .F. ) ;
#304 = EDGE_CURVE ( 'NONE', #44, #138, #208, .T. ) ;
#305 = ORIENTED_EDGE ( 'NONE', *, *, #234, .T. ) ;
#306 = CARTESIAN_POINT ( 'NONE',  ( 0.000000000000000000, 0.000000000000000000, 0.000000000000000000 ) ) ;
#307 = ORIENTED_EDGE ( 'NONE', *, *, #115, .F. ) ;
#308 = ORIENTED_EDGE ( 'NONE', *, *, #166, .F. ) ;
#309 = UNCERTAINTY_MEASURE_WITH_UNIT (LENGTH_MEASURE( 1.000000000000000082E-05 ), #172, 'distance_accuracy_value', 'NONE');
#310 = MECHANICAL_DESIGN_GEOMETRIC_PRESENTATION_REPRESENTATION (  '', ( #260 ), #119 ) ;
#311 = CARTESIAN_POINT ( 'NONE',  ( 2.199633243471174140E-13, -7.715274834628325378E-15, 63.00000000000000000 ) ) ;
#312 = VECTOR ( 'NONE', #155, 1000.000000000000000 ) ;
#313 = CARTESIAN_POINT ( 'NONE',  ( 1.424334175073076527E-13, 3.999999999999990674, 62.19999999999998153 ) ) ;
#314 = ORIENTED_EDGE ( 'NONE', *, *, #230, .T. ) ;
#315 = EDGE_CURVE ( 'NONE', #15, #216, #113, .T. ) ;
#316 = DIRECTION ( 'NONE',  ( 3.491481338843133355E-15, -1.224646799147353207E-16, 1.000000000000000000 ) ) ;
#317 = CARTESIAN_POINT ( 'NONE',  ( 4.898587196589394093E-16, -3.999999999999998224, -4.898587196589427620E-16 ) ) ;
#318 =( NAMED_UNIT ( * ) PLANE_ANGLE_UNIT ( ) SI_UNIT ( $, .RADIAN. ) );
#319 = VECTOR ( 'NONE', #125, 1000.000000000000000 ) ;
#320 = FACE_OUTER_BOUND ( 'NONE', #14, .T. ) ;
#321 = LINE ( 'NONE', #67, #210 ) ;
#322 = CARTESIAN_POINT ( 'NONE',  ( 1.710332578358782742E-30, 3.999999999999998224, 4.898587196589410857E-16 ) ) ;
#323 = CIRCLE ( 'NONE', #64, 3.999999999999995559 ) ;
#324 = CARTESIAN_POINT ( 'NONE',  ( -3.949999999999931788, 4.837354856632043085E-16, 19.25000000000001421 ) ) ;
#325 = DIRECTION ( 'NONE',  ( -3.491481338843133355E-15, 1.224646799147353207E-16, -1.000000000000000000 ) ) ;
#326 = FACE_OUTER_BOUND ( 'NONE', #74, .T. ) ;
#327 = EDGE_CURVE ( 'NONE', #187, #227, #247, .T. ) ;
#328 = CARTESIAN_POINT ( 'NONE',  ( 6.721101577273031393E-14, -2.357445088358654757E-15, 19.25000000000000000 ) ) ;
#329 =( LENGTH_UNIT ( ) NAMED_UNIT ( * ) SI_UNIT ( .MILLI., .METRE. ) );
#330 = AXIS2_PLACEMENT_3D ( 'NONE', #99, #263, #53 ) ;
#331 = PRODUCT_RELATED_PRODUCT_CATEGORY ( 'part', '', ( #40 ) ) ;
#332 = CARTESIAN_POINT ( 'NONE',  ( 2.199633243471174140E-13, -7.715274834628325378E-15, 63.00000000000000000 ) ) ;
#333 = ORIENTED_EDGE ( 'NONE', *, *, #82, .T. ) ;
#334 = ORIENTED_EDGE ( 'NONE', *, *, #256, .T. ) ;
#335 = EDGE_LOOP ( 'NONE', ( #116, #49, #213, #71 ) ) ;
#336 = EDGE_CURVE ( 'NONE', #43, #340, #46, .T. ) ;
#337 =( NAMED_UNIT ( * ) SI_UNIT ( $, .STERADIAN. ) SOLID_ANGLE_UNIT ( ) );
#338 = DIRECTION ( 'NONE',  ( -2.468850131082272049E-15, 0.7071067811865456854, -0.7071067811865493491 ) ) ;
#339 = ORIENTED_EDGE ( 'NONE', *, *, #117, .F. ) ;
#340 = VERTEX_POINT ( 'NONE', #282 ) ;
#341 = AXIS2_PLACEMENT_3D ( 'NONE', #182, #151, #7 ) ;
#342 = DIRECTION ( 'NONE',  ( 0.000000000000000000, -1.000000000000000000, 0.000000000000000000 ) ) ;
#343 = ORIENTED_EDGE ( 'NONE', *, *, #336, .F. ) ;
ENDSEC;
END-ISO-10303-21;
