ISO-10303-21;
HEADER;
FILE_DESCRIPTION (( 'STEP AP214' ),
    '1' );
FILE_NAME ('952015.step',
    '2024-04-04T13:05:35',
    ( '' ),
    ( '' ),
    'SwSTEP 2.0',
    'SolidWorks 2022',
    '' );
FILE_SCHEMA (( 'AUTOMOTIVE_DESIGN' ));
ENDSEC;

DATA;
#1 = AXIS2_PLACEMENT_3D ( 'NONE', #308, #279, #305 ) ;
#2 = ORIENTED_EDGE ( 'NONE', *, *, #314, .T. ) ;
#3 = VERTEX_POINT ( 'NONE', #103 ) ;
#4 = EDGE_LOOP ( 'NONE', ( #132, #329, #130, #287 ) ) ;
#5 = CARTESIAN_POINT ( 'NONE',  ( 5.237222008264700033E-14, 0.000000000000000000, 15.00000000000000000 ) ) ;
#6 = ORIENTED_EDGE ( 'NONE', *, *, #242, .F. ) ;
#7 = ORIENTED_EDGE ( 'NONE', *, *, #23, .T. ) ;
#8 = AXIS2_PLACEMENT_3D ( 'NONE', #118, #44, #148 ) ;
#9 = AXIS2_PLACEMENT_3D ( 'NONE', #286, #256, #140 ) ;
#10 = ADVANCED_FACE ( 'NONE', ( #109 ), #36, .T. ) ;
#11 = DIRECTION ( 'NONE',  ( -3.491481338843133355E-15, 1.224646799147353207E-16, -1.000000000000000000 ) ) ;
#12 = CARTESIAN_POINT ( 'NONE',  ( 1.972869415504969014E-13, -3.000000000000005329, 56.39999999999999147 ) ) ;
#13 = DIRECTION ( 'NONE',  ( 0.000000000000000000, 1.000000000000000000, 0.000000000000000000 ) ) ;
#14 = VERTEX_POINT ( 'NONE', #232 ) ;
#15 = FACE_OUTER_BOUND ( 'NONE', #115, .T. ) ;
#16 = ADVANCED_FACE ( 'NONE', ( #313 ), #292, .T. ) ;
#17 = APPLICATION_CONTEXT ( 'automotive_design' ) ;
#18 = DIRECTION ( 'NONE',  ( 3.491481338843133355E-15, -0.000000000000000000, 1.000000000000000000 ) ) ;
#19 = FACE_OUTER_BOUND ( 'NONE', #4, .T. ) ;
#20 = CARTESIAN_POINT ( 'NONE',  ( 5.237222008264700033E-14, 0.000000000000000000, 15.00000000000000000 ) ) ;
#21 = AXIS2_PLACEMENT_3D ( 'NONE', #150, #208, #46 ) ;
#22 = AXIS2_PLACEMENT_3D ( 'NONE', #43, #116, #311 ) ;
#23 = EDGE_CURVE ( 'NONE', #110, #246, #93, .T. ) ;
#24 = AXIS2_PLACEMENT_3D ( 'NONE', #198, #328, #303 ) ;
#25 = EDGE_CURVE ( 'NONE', #76, #14, #95, .T. ) ;
#26 = VECTOR ( 'NONE', #138, 1000.000000000000000 ) ;
#27 =( NAMED_UNIT ( * ) SI_UNIT ( $, .STERADIAN. ) SOLID_ANGLE_UNIT ( ) );
#28 = VERTEX_POINT ( 'NONE', #74 ) ;
#29 = PRESENTATION_LAYER_ASSIGNMENT (  '', '', ( #97 ) ) ;
#30 = VERTEX_POINT ( 'NONE', #154 ) ;
#31 = DIRECTION ( 'NONE',  ( 1.000000000000000000, 0.000000000000000000, -3.528251137579948177E-15 ) ) ;
#32 = ORIENTED_EDGE ( 'NONE', *, *, #181, .T. ) ;
#33 = CYLINDRICAL_SURFACE ( 'NONE', #9, 2.949999999999999289 ) ;
#34 = CIRCLE ( 'NONE', #215, 2.999999999999998224 ) ;
#35 = PRESENTATION_STYLE_ASSIGNMENT (( #139 ) ) ;
#36 = CYLINDRICAL_SURFACE ( 'NONE', #8, 2.949999999999999289 ) ;
#37 = DIRECTION ( 'NONE',  ( -3.491481338843133355E-15, 1.224646799147353207E-16, -1.000000000000000000 ) ) ;
#38 = CARTESIAN_POINT ( 'NONE',  ( 1.969195475107526960E-13, -6.907007947191071191E-15, 56.39999999999999147 ) ) ;
#39 = ORIENTED_EDGE ( 'NONE', *, *, #330, .F. ) ;
#40 = CARTESIAN_POINT ( 'NONE',  ( 1.969195475107526960E-13, -6.907007947191071191E-15, 56.39999999999999147 ) ) ;
#41 = CARTESIAN_POINT ( 'NONE',  ( 5.297939248831439906E-14, 2.949999999999998845, 15.00000000000000000 ) ) ;
#42 = AXIS2_PLACEMENT_3D ( 'NONE', #304, #165, #225 ) ;
#43 = CARTESIAN_POINT ( 'NONE',  ( 0.000000000000000000, 0.000000000000000000, 0.000000000000000000 ) ) ;
#44 = DIRECTION ( 'NONE',  ( 3.491481338843133355E-15, -0.000000000000000000, 1.000000000000000000 ) ) ;
#45 = UNCERTAINTY_MEASURE_WITH_UNIT (LENGTH_MEASURE( 1.000000000000000082E-05 ), #236, 'distance_accuracy_value', 'NONE');
#46 = DIRECTION ( 'NONE',  ( 4.275831445896958607E-31, 1.000000000000000000, 1.224646799147353454E-16 ) ) ;
#47 = CIRCLE ( 'NONE', #127, 2.950000000000000622 ) ;
#48 = DIRECTION ( 'NONE',  ( -3.491481338843133355E-15, 0.000000000000000000, -1.000000000000000000 ) ) ;
#49 = APPLICATION_PROTOCOL_DEFINITION ( 'draft international standard', 'automotive_design', 1998, #271 ) ;
#50 = CARTESIAN_POINT ( 'NONE',  ( 1.248887237796209281E-13, 2.999999999999991562, 56.39999999999999147 ) ) ;
#51 =( LENGTH_UNIT ( ) NAMED_UNIT ( * ) SI_UNIT ( .MILLI., .METRE. ) );
#52 = VECTOR ( 'NONE', #277, 1000.000000000000000 ) ;
#53 = ORIENTED_EDGE ( 'NONE', *, *, #126, .F. ) ;
#54 = EDGE_CURVE ( 'NONE', #30, #327, #167, .T. ) ;
#55 = ORIENTED_EDGE ( 'NONE', *, *, #121, .F. ) ;
#56 = CIRCLE ( 'NONE', #261, 2.950000000000000622 ) ;
#57 = VERTEX_POINT ( 'NONE', #104 ) ;
#58 = EDGE_CURVE ( 'NONE', #246, #335, #102, .T. ) ;
#59 = ORIENTED_EDGE ( 'NONE', *, *, #54, .T. ) ;
#60 = FACE_OUTER_BOUND ( 'NONE', #160, .T. ) ;
#61 = MANIFOLD_SOLID_BREP ( 'Corps-Déplacer/Copier1[1]', #227 ) ;
#62 = EDGE_LOOP ( 'NONE', ( #114, #6, #88, #307 ) ) ;
#63 = DIRECTION ( 'NONE',  ( 3.327098416510788004E-15, 0.3382550599108818390, 0.9410544694355825746 ) ) ;
#64 = VERTEX_POINT ( 'NONE', #41 ) ;
#65 = DIRECTION ( 'NONE',  ( 1.000000000000000000, 0.000000000000000000, -3.491481338843132961E-15 ) ) ;
#66 = CARTESIAN_POINT ( 'NONE',  ( 5.237222008264700033E-14, -2.950000000000002398, 15.00000000000000000 ) ) ;
#67 = AXIS2_PLACEMENT_3D ( 'NONE', #224, #325, #195 ) ;
#68 = EDGE_CURVE ( 'NONE', #30, #79, #264, .T. ) ;
#69 = FILL_AREA_STYLE_COLOUR ( '', #228 ) ;
#70 = FILL_AREA_STYLE ('',( #317 ) ) ;
#71 = DIRECTION ( 'NONE',  ( -3.491481338843133750E-15, 1.224646799147345072E-16, -1.000000000000000000 ) ) ;
#72 = FILL_AREA_STYLE ('',( #315 ) ) ;
#73 = ORIENTED_EDGE ( 'NONE', *, *, #314, .F. ) ;
#74 = CARTESIAN_POINT ( 'NONE',  ( 5.285790004848912240E-14, 2.999999999999993339, 15.13910427085457400 ) ) ;
#75 =( GEOMETRIC_REPRESENTATION_CONTEXT ( 3 ) GLOBAL_UNCERTAINTY_ASSIGNED_CONTEXT ( ( #45 ) ) GLOBAL_UNIT_ASSIGNED_CONTEXT ( ( #236, #231, #174 ) ) REPRESENTATION_CONTEXT ( 'NONE', 'WORKASPACE' ) );
#76 = VERTEX_POINT ( 'NONE', #187 ) ;
#77 = FACE_OUTER_BOUND ( 'NONE', #297, .T. ) ;
#78 = ADVANCED_FACE ( 'NONE', ( #342 ), #183, .F. ) ;
#79 = VERTEX_POINT ( 'NONE', #50 ) ;
#80 = CARTESIAN_POINT ( 'NONE',  ( 5.237222008264700033E-14, -1.836970198721029589E-15, 15.00000000000000000 ) ) ;
#81 = CARTESIAN_POINT ( 'NONE',  ( 2.950000000000052136, 0.000000000000000000, 14.99999999999998934 ) ) ;
#82 = ORIENTED_EDGE ( 'NONE', *, *, #267, .T. ) ;
#83 = DIRECTION ( 'NONE',  ( 3.491481338843133355E-15, -1.224646799147353207E-16, 1.000000000000000000 ) ) ;
#84 = ORIENTED_EDGE ( 'NONE', *, *, #242, .T. ) ;
#85 = DIRECTION ( 'NONE',  ( 3.491481338843133355E-15, -0.000000000000000000, 1.000000000000000000 ) ) ;
#86 = CARTESIAN_POINT ( 'NONE',  ( 5.273349088839547028E-14, 2.949999999999998845, 15.00000000000000000 ) ) ;
#87 =( LENGTH_UNIT ( ) NAMED_UNIT ( * ) SI_UNIT ( .MILLI., .METRE. ) );
#88 = ORIENTED_EDGE ( 'NONE', *, *, #156, .T. ) ;
#89 = CARTESIAN_POINT ( 'NONE',  ( -2.949999999999946443, 3.612708057484691604E-16, 15.00000000000001066 ) ) ;
#90 = CONICAL_SURFACE ( 'NONE', #1, 2.999999999999998224, 0.7853981633974388421 ) ;
#91 = DIRECTION ( 'NONE',  ( -3.491481338843133355E-15, 1.224646799147353207E-16, -1.000000000000000000 ) ) ;
#92 = VECTOR ( 'NONE', #63, 1000.000000000000114 ) ;
#93 = LINE ( 'NONE', #309, #275 ) ;
#94 = PRESENTATION_STYLE_ASSIGNMENT (( #212 ) ) ;
#95 = CIRCLE ( 'NONE', #166, 2.399999999999999467 ) ;
#96 = FILL_AREA_STYLE ('',( #69 ) ) ;
#97 = STYLED_ITEM ( 'NONE', ( #35 ), #61 ) ;
#98 = CARTESIAN_POINT ( 'NONE',  ( 5.237222008264700033E-14, 2.949999999999998845, 15.00000000000000000 ) ) ;
#99 = CARTESIAN_POINT ( 'NONE',  ( 0.000000000000000000, 0.000000000000000000, 0.000000000000000000 ) ) ;
#100 = ORIENTED_EDGE ( 'NONE', *, *, #265, .F. ) ;
#101 =( NAMED_UNIT ( * ) SI_UNIT ( $, .STERADIAN. ) SOLID_ANGLE_UNIT ( ) );
#102 = CIRCLE ( 'NONE', #270, 2.949999999999998845 ) ;
#103 = CARTESIAN_POINT ( 'NONE',  ( 5.261506006556806137E-14, -2.950000000000002398, 15.00000000000000000 ) ) ;
#104 = CARTESIAN_POINT ( 'NONE',  ( 2.950000000000000178, 0.000000000000000000, -1.029986994958724340E-14 ) ) ;
#105 = EDGE_LOOP ( 'NONE', ( #260, #7, #302, #250 ) ) ;
#106 = CARTESIAN_POINT ( 'NONE',  ( 0.000000000000000000, 0.000000000000000000, 0.000000000000000000 ) ) ;
#107 = CIRCLE ( 'NONE', #42, 2.399999999999999467 ) ;
#108 = DIRECTION ( 'NONE',  ( -3.491481338843133750E-15, 1.224646799147345072E-16, -1.000000000000000000 ) ) ;
#109 = FACE_OUTER_BOUND ( 'NONE', #105, .T. ) ;
#110 = VERTEX_POINT ( 'NONE', #241 ) ;
#111 = FACE_OUTER_BOUND ( 'NONE', #155, .T. ) ;
#112 = DIRECTION ( 'NONE',  ( -2.382254525458739952E-15, -0.7071067811865408004, -0.7071067811865541231 ) ) ;
#113 = LINE ( 'NONE', #86, #92 ) ;
#114 = ORIENTED_EDGE ( 'NONE', *, *, #149, .F. ) ;
#115 = EDGE_LOOP ( 'NONE', ( #2, #59, #53, #326 ) ) ;
#116 = DIRECTION ( 'NONE',  ( 3.491481338843133355E-15, -0.000000000000000000, 1.000000000000000000 ) ) ;
#117 = CYLINDRICAL_SURFACE ( 'NONE', #67, 2.999999999999998224 ) ;
#118 = CARTESIAN_POINT ( 'NONE',  ( 5.237222008264700033E-14, 0.000000000000000000, 15.00000000000000000 ) ) ;
#119 = CONICAL_SURFACE ( 'NONE', #202, 2.999999999999998224, 0.7853981633974388421 ) ;
#120 = CARTESIAN_POINT ( 'NONE',  ( 9.620620753268164090E-32, 2.950000000000000178, 2.755455298081546935E-17 ) ) ;
#121 = EDGE_CURVE ( 'NONE', #14, #79, #249, .T. ) ;
#122 = DIRECTION ( 'NONE',  ( 3.491481338843133355E-15, -0.000000000000000000, 1.000000000000000000 ) ) ;
#123 = CIRCLE ( 'NONE', #22, 2.950000000000000178 ) ;
#124 = AXIS2_PLACEMENT_3D ( 'NONE', #99, #268, #185 ) ;
#125 = ADVANCED_BREP_SHAPE_REPRESENTATION ( '952015', ( #61, #178, #124 ), #75 ) ;
#126 = EDGE_CURVE ( 'NONE', #28, #327, #234, .T. ) ;
#127 = AXIS2_PLACEMENT_3D ( 'NONE', #136, #331, #131 ) ;
#128 = SHAPE_DEFINITION_REPRESENTATION ( #288, #125 ) ;
#129 = UNCERTAINTY_MEASURE_WITH_UNIT (LENGTH_MEASURE( 1.000000000000000082E-05 ), #51, 'distance_accuracy_value', 'NONE');
#130 = ORIENTED_EDGE ( 'NONE', *, *, #126, .T. ) ;
#131 = DIRECTION ( 'NONE',  ( 0.000000000000000000, 1.000000000000000000, 0.000000000000000000 ) ) ;
#132 = ORIENTED_EDGE ( 'NONE', *, *, #318, .F. ) ;
#133 = ORIENTED_EDGE ( 'NONE', *, *, #291, .T. ) ;
#134 = ORIENTED_EDGE ( 'NONE', *, *, #121, .T. ) ;
#135 = CIRCLE ( 'NONE', #209, 2.950000000000000178 ) ;
#136 = CARTESIAN_POINT ( 'NONE',  ( 5.237222008264700033E-14, -1.836970198721029589E-15, 15.00000000000000000 ) ) ;
#137 = DIRECTION ( 'NONE',  ( -3.491481338843133355E-15, 1.224646799147353207E-16, -1.000000000000000000 ) ) ;
#138 = DIRECTION ( 'NONE',  ( -2.468850131082288221E-15, 0.7071067811865410224, -0.7071067811865540120 ) ) ;
#139 = SURFACE_STYLE_USAGE ( .BOTH. , #259 ) ;
#140 = DIRECTION ( 'NONE',  ( 1.000000000000000000, 0.000000000000000000, -3.528251137579947388E-15 ) ) ;
#141 =( NAMED_UNIT ( * ) PLANE_ANGLE_UNIT ( ) SI_UNIT ( $, .RADIAN. ) );
#142 = ORIENTED_EDGE ( 'NONE', *, *, #68, .F. ) ;
#143 = DIRECTION ( 'NONE',  ( 1.000000000000000000, 0.000000000000000000, -3.528251137579948177E-15 ) ) ;
#144 = CLOSED_SHELL ( 'NONE', ( #10, #217, #78, #164 ) ) ;
#145 = AXIS2_PLACEMENT_3D ( 'NONE', #120, #18, #262 ) ;
#146 = CARTESIAN_POINT ( 'NONE',  ( 1.969195475107526960E-13, -6.907007947191071191E-15, 56.39999999999999147 ) ) ;
#147 = FACE_OUTER_BOUND ( 'NONE', #219, .T. ) ;
#148 = DIRECTION ( 'NONE',  ( 1.000000000000000000, 0.000000000000000000, -3.528251137579947388E-15 ) ) ;
#149 = EDGE_CURVE ( 'NONE', #64, #28, #113, .T. ) ;
#150 = CARTESIAN_POINT ( 'NONE',  ( 0.000000000000000000, 0.000000000000000000, 0.000000000000000000 ) ) ;
#151 = COLOUR_RGB ( '',1.000000000000000000, 1.000000000000000000, 1.000000000000000000 ) ;
#152 = DIRECTION ( 'NONE',  ( -1.000000000000000000, 0.000000000000000000, 3.491481338843133355E-15 ) ) ;
#153 = SURFACE_SIDE_STYLE ('',( #191 ) ) ;
#154 = CARTESIAN_POINT ( 'NONE',  ( 1.252561178193650578E-13, -3.000000000000005329, 56.39999999999999147 ) ) ;
#155 = EDGE_LOOP ( 'NONE', ( #301, #203, #134, #142 ) ) ;
#156 = EDGE_CURVE ( 'NONE', #3, #327, #207, .T. ) ;
#157 = CARTESIAN_POINT ( 'NONE',  ( 1.990144363140586139E-13, -6.980486755139912911E-15, 57.00000000000000000 ) ) ;
#158 = AXIS2_PLACEMENT_3D ( 'NONE', #239, #280, #299 ) ;
#159 =( LENGTH_UNIT ( ) NAMED_UNIT ( * ) SI_UNIT ( .MILLI., .METRE. ) );
#160 = EDGE_LOOP ( 'NONE', ( #192, #247, #32, #162 ) ) ;
#161 = AXIS2_PLACEMENT_3D ( 'NONE', #175, #83, #201 ) ;
#162 = ORIENTED_EDGE ( 'NONE', *, *, #58, .F. ) ;
#163 = LINE ( 'NONE', #289, #290 ) ;
#164 = ADVANCED_FACE ( 'NONE', ( #147 ), #312, .F. ) ;
#165 = DIRECTION ( 'NONE',  ( 3.491481338843133355E-15, -1.224646799147353207E-16, 1.000000000000000000 ) ) ;
#166 = AXIS2_PLACEMENT_3D ( 'NONE', #157, #320, #188 ) ;
#167 = LINE ( 'NONE', #245, #52 ) ;
#168 = ORIENTED_EDGE ( 'NONE', *, *, #68, .T. ) ;
#169 = DIRECTION ( 'NONE',  ( 3.491481338843133355E-15, -0.000000000000000000, 1.000000000000000000 ) ) ;
#170 = PRODUCT_RELATED_PRODUCT_CATEGORY ( 'part', '', ( #263 ) ) ;
#171 = DIRECTION ( 'NONE',  ( 0.000000000000000000, 1.000000000000000000, 0.000000000000000000 ) ) ;
#172 = ADVANCED_FACE ( 'NONE', ( #19 ), #340, .T. ) ;
#173 =( GEOMETRIC_REPRESENTATION_CONTEXT ( 3 ) GLOBAL_UNCERTAINTY_ASSIGNED_CONTEXT ( ( #240 ) ) GLOBAL_UNIT_ASSIGNED_CONTEXT ( ( #87, #141, #336 ) ) REPRESENTATION_CONTEXT ( 'NONE', 'WORKASPACE' ) );
#174 =( NAMED_UNIT ( * ) SI_UNIT ( $, .STERADIAN. ) SOLID_ANGLE_UNIT ( ) );
#175 = CARTESIAN_POINT ( 'NONE',  ( 5.237222008264700033E-14, -1.836970198721029589E-15, 15.00000000000000000 ) ) ;
#176 = DIRECTION ( 'NONE',  ( 0.000000000000000000, 1.000000000000000000, 0.000000000000000000 ) ) ;
#177 = EDGE_CURVE ( 'NONE', #14, #76, #107, .T. ) ;
#178 = MANIFOLD_SOLID_BREP ( 'Corps-Déplacer/Copier1[2]', #144 ) ;
#179 = SURFACE_SIDE_STYLE ('',( #266 ) ) ;
#180 = SURFACE_STYLE_FILL_AREA ( #70 ) ;
#181 = EDGE_CURVE ( 'NONE', #57, #335, #211, .T. ) ;
#182 = PRESENTATION_STYLE_ASSIGNMENT (( #339 ) ) ;
#183 = PLANE ( 'NONE',  #294 ) ;
#184 = UNCERTAINTY_MEASURE_WITH_UNIT (LENGTH_MEASURE( 1.000000000000000082E-05 ), #159, 'distance_accuracy_value', 'NONE');
#185 = DIRECTION ( 'NONE',  ( 1.000000000000000000, 0.000000000000000000, 0.000000000000000000 ) ) ;
#186 = STYLED_ITEM ( 'NONE', ( #182 ), #178 ) ;
#187 = CARTESIAN_POINT ( 'NONE',  ( 1.982976465481754348E-13, -2.400000000000006128, 57.00000000000000000 ) ) ;
#188 = DIRECTION ( 'NONE',  ( 0.000000000000000000, -1.000000000000000000, 0.000000000000000000 ) ) ;
#189 = DIRECTION ( 'NONE',  ( 3.491481338843133355E-15, -0.000000000000000000, 1.000000000000000000 ) ) ;
#190 = MECHANICAL_DESIGN_GEOMETRIC_PRESENTATION_REPRESENTATION (  '', ( #97 ), #173 ) ;
#191 = SURFACE_STYLE_FILL_AREA ( #72 ) ;
#192 = ORIENTED_EDGE ( 'NONE', *, *, #23, .F. ) ;
#193 = PLANE ( 'NONE',  #238 ) ;
#194 = ORIENTED_EDGE ( 'NONE', *, *, #25, .T. ) ;
#195 = DIRECTION ( 'NONE',  ( 4.275831445896958607E-31, 1.000000000000000000, 1.224646799147353454E-16 ) ) ;
#196 = MECHANICAL_DESIGN_GEOMETRIC_PRESENTATION_REPRESENTATION (  '', ( #186 ), #276 ) ;
#197 = EDGE_LOOP ( 'NONE', ( #82, #220 ) ) ;
#198 = CARTESIAN_POINT ( 'NONE',  ( 5.237222008264700033E-14, -1.836970198721029589E-15, 15.00000000000000000 ) ) ;
#199 = PLANE ( 'NONE',  #158 ) ;
#200 = FACE_OUTER_BOUND ( 'NONE', #62, .T. ) ;
#201 = DIRECTION ( 'NONE',  ( 0.000000000000000000, -1.000000000000000000, 0.000000000000000000 ) ) ;
#202 = AXIS2_PLACEMENT_3D ( 'NONE', #40, #108, #221 ) ;
#203 = ORIENTED_EDGE ( 'NONE', *, *, #177, .F. ) ;
#204 = DIRECTION ( 'NONE',  ( -4.275831445896958607E-31, -1.000000000000000000, -1.224646799147353207E-16 ) ) ;
#205 = DIRECTION ( 'NONE',  ( 3.285674118869261816E-15, -0.3382550599108820610, 0.9410544694355824635 ) ) ;
#206 = DIRECTION ( 'NONE',  ( -2.398081733190338443E-14, -1.000000000000000000, 0.000000000000000000 ) ) ;
#207 = LINE ( 'NONE', #66, #321 ) ;
#208 = DIRECTION ( 'NONE',  ( -3.491481338843133355E-15, 1.224646799147353207E-16, -1.000000000000000000 ) ) ;
#209 = AXIS2_PLACEMENT_3D ( 'NONE', #106, #85, #65 ) ;
#210 = VECTOR ( 'NONE', #112, 1000.000000000000114 ) ;
#211 = LINE ( 'NONE', #81, #243 ) ;
#212 = SURFACE_STYLE_USAGE ( .BOTH. , #153 ) ;
#213 = ADVANCED_FACE ( 'NONE', ( #306 ), #199, .T. ) ;
#214 = CIRCLE ( 'NONE', #316, 2.999999999999994671 ) ;
#215 = AXIS2_PLACEMENT_3D ( 'NONE', #146, #71, #324 ) ;
#216 = ADVANCED_FACE ( 'NONE', ( #322 ), #193, .T. ) ;
#217 = ADVANCED_FACE ( 'NONE', ( #60 ), #33, .T. ) ;
#218 = ORIENTED_EDGE ( 'NONE', *, *, #54, .F. ) ;
#219 = EDGE_LOOP ( 'NONE', ( #100, #39 ) ) ;
#220 = ORIENTED_EDGE ( 'NONE', *, *, #58, .T. ) ;
#221 = DIRECTION ( 'NONE',  ( 0.000000000000000000, 1.000000000000000000, 0.000000000000000000 ) ) ;
#222 = AXIS2_PLACEMENT_3D ( 'NONE', #5, #169, #31 ) ;
#223 = MECHANICAL_DESIGN_GEOMETRIC_PRESENTATION_REPRESENTATION (  '', ( #334 ), #285 ) ;
#224 = CARTESIAN_POINT ( 'NONE',  ( 0.000000000000000000, 0.000000000000000000, 0.000000000000000000 ) ) ;
#225 = DIRECTION ( 'NONE',  ( 0.000000000000000000, -1.000000000000000000, 0.000000000000000000 ) ) ;
#226 = ORIENTED_EDGE ( 'NONE', *, *, #338, .F. ) ;
#227 = CLOSED_SHELL ( 'NONE', ( #272, #172, #278, #213, #216, #16, #282, #248 ) ) ;
#228 = COLOUR_RGB ( '',1.000000000000000000, 1.000000000000000000, 1.000000000000000000 ) ;
#229 = EDGE_LOOP ( 'NONE', ( #255, #194 ) ) ;
#230 = DIRECTION ( 'NONE',  ( -3.491481338843133750E-15, 1.224646799147345072E-16, -1.000000000000000000 ) ) ;
#231 =( NAMED_UNIT ( * ) PLANE_ANGLE_UNIT ( ) SI_UNIT ( $, .RADIAN. ) );
#232 = CARTESIAN_POINT ( 'NONE',  ( 1.979669919124056423E-13, 2.399999999999992362, 57.00000000000000000 ) ) ;
#233 = EDGE_CURVE ( 'NONE', #79, #28, #163, .T. ) ;
#234 = CIRCLE ( 'NONE', #253, 2.999999999999994671 ) ;
#235 = COLOUR_RGB ( '',1.000000000000000000, 1.000000000000000000, 1.000000000000000000 ) ;
#236 =( LENGTH_UNIT ( ) NAMED_UNIT ( * ) SI_UNIT ( .MILLI., .METRE. ) );
#237 = PRODUCT_DEFINITION ( 'UNKNOWN', '', #254, #295 ) ;
#238 = AXIS2_PLACEMENT_3D ( 'NONE', #244, #310, #204 ) ;
#239 = CARTESIAN_POINT ( 'NONE',  ( 5.237222008264700033E-14, 2.949999999999998845, 15.00000000000000000 ) ) ;
#240 = UNCERTAINTY_MEASURE_WITH_UNIT (LENGTH_MEASURE( 1.000000000000000082E-05 ), #87, 'distance_accuracy_value', 'NONE');
#241 = CARTESIAN_POINT ( 'NONE',  ( -2.950000000000000178, 3.612708057484724144E-16, 1.029986994958724498E-14 ) ) ;
#242 = EDGE_CURVE ( 'NONE', #3, #64, #47, .T. ) ;
#243 = VECTOR ( 'NONE', #189, 1000.000000000000000 ) ;
#244 = CARTESIAN_POINT ( 'NONE',  ( 1.990144363140586139E-13, -6.980486755139912911E-15, 57.00000000000000000 ) ) ;
#245 = CARTESIAN_POINT ( 'NONE',  ( 3.673940397442045077E-16, -2.999999999999998224, -3.673940397442070222E-16 ) ) ;
#246 = VERTEX_POINT ( 'NONE', #89 ) ;
#247 = ORIENTED_EDGE ( 'NONE', *, *, #330, .T. ) ;
#248 = ADVANCED_FACE ( 'NONE', ( #111 ), #90, .T. ) ;
#249 = LINE ( 'NONE', #252, #26 ) ;
#250 = ORIENTED_EDGE ( 'NONE', *, *, #181, .F. ) ;
#251 = LINE ( 'NONE', #12, #210 ) ;
#252 = CARTESIAN_POINT ( 'NONE',  ( 1.969195475107526960E-13, 2.999999999999991562, 56.39999999999999147 ) ) ;
#253 = AXIS2_PLACEMENT_3D ( 'NONE', #257, #37, #13 ) ;
#254 = PRODUCT_DEFINITION_FORMATION_WITH_SPECIFIED_SOURCE ( 'ANY', '', #263, .NOT_KNOWN. ) ;
#255 = ORIENTED_EDGE ( 'NONE', *, *, #177, .T. ) ;
#256 = DIRECTION ( 'NONE',  ( 3.491481338843133355E-15, -0.000000000000000000, 1.000000000000000000 ) ) ;
#257 = CARTESIAN_POINT ( 'NONE',  ( 5.285790004848912240E-14, -1.854005558726007719E-15, 15.13910427085457400 ) ) ;
#258 = CARTESIAN_POINT ( 'NONE',  ( 5.285790004848912240E-14, -1.854005558726007719E-15, 15.13910427085457400 ) ) ;
#259 = SURFACE_SIDE_STYLE ('',( #180 ) ) ;
#260 = ORIENTED_EDGE ( 'NONE', *, *, #265, .T. ) ;
#261 = AXIS2_PLACEMENT_3D ( 'NONE', #80, #91, #176 ) ;
#262 = DIRECTION ( 'NONE',  ( 1.000000000000000000, 0.000000000000000000, -3.491481338843133355E-15 ) ) ;
#263 = PRODUCT ( '952015', '952015', '', ( #269 ) ) ;
#264 = CIRCLE ( 'NONE', #300, 2.999999999999998224 ) ;
#265 = EDGE_CURVE ( 'NONE', #57, #110, #135, .T. ) ;
#266 = SURFACE_STYLE_FILL_AREA ( #96 ) ;
#267 = EDGE_CURVE ( 'NONE', #335, #246, #337, .T. ) ;
#268 = DIRECTION ( 'NONE',  ( 0.000000000000000000, 0.000000000000000000, 1.000000000000000000 ) ) ;
#269 = PRODUCT_CONTEXT ( 'NONE', #271, 'mechanical' ) ;
#270 = AXIS2_PLACEMENT_3D ( 'NONE', #20, #122, #143 ) ;
#271 = APPLICATION_CONTEXT ( 'automotive_design' ) ;
#272 = ADVANCED_FACE ( 'NONE', ( #77 ), #119, .T. ) ;
#273 =( NAMED_UNIT ( * ) PLANE_ANGLE_UNIT ( ) SI_UNIT ( $, .RADIAN. ) );
#274 = EDGE_LOOP ( 'NONE', ( #84, #332 ) ) ;
#275 = VECTOR ( 'NONE', #293, 1000.000000000000000 ) ;
#276 =( GEOMETRIC_REPRESENTATION_CONTEXT ( 3 ) GLOBAL_UNCERTAINTY_ASSIGNED_CONTEXT ( ( #129 ) ) GLOBAL_UNIT_ASSIGNED_CONTEXT ( ( #51, #273, #101 ) ) REPRESENTATION_CONTEXT ( 'NONE', 'WORKASPACE' ) );
#277 = DIRECTION ( 'NONE',  ( -3.491481338843133355E-15, 1.224646799147353207E-16, -1.000000000000000000 ) ) ;
#278 = ADVANCED_FACE ( 'NONE', ( #15 ), #117, .T. ) ;
#279 = DIRECTION ( 'NONE',  ( -3.491481338843133750E-15, 1.224646799147345072E-16, -1.000000000000000000 ) ) ;
#280 = DIRECTION ( 'NONE',  ( -3.491481338843133355E-15, 1.224646799147353207E-16, -1.000000000000000000 ) ) ;
#281 = ORIENTED_EDGE ( 'NONE', *, *, #233, .T. ) ;
#282 = ADVANCED_FACE ( 'NONE', ( #200 ), #284, .T. ) ;
#283 = CARTESIAN_POINT ( 'NONE',  ( 2.950000000000051692, 0.000000000000000000, 14.99999999999998934 ) ) ;
#284 = CONICAL_SURFACE ( 'NONE', #24, 2.950000000000000622, 0.3450620389298190704 ) ;
#285 =( GEOMETRIC_REPRESENTATION_CONTEXT ( 3 ) GLOBAL_UNCERTAINTY_ASSIGNED_CONTEXT ( ( #184 ) ) GLOBAL_UNIT_ASSIGNED_CONTEXT ( ( #159, #343, #27 ) ) REPRESENTATION_CONTEXT ( 'NONE', 'WORKASPACE' ) );
#286 = CARTESIAN_POINT ( 'NONE',  ( 5.237222008264700033E-14, 0.000000000000000000, 15.00000000000000000 ) ) ;
#287 = ORIENTED_EDGE ( 'NONE', *, *, #156, .F. ) ;
#288 = PRODUCT_DEFINITION_SHAPE ( 'NONE', 'NONE',  #237 ) ;
#289 = CARTESIAN_POINT ( 'NONE',  ( 1.282749433769086881E-30, 2.999999999999998224, 3.673940397442057896E-16 ) ) ;
#290 = VECTOR ( 'NONE', #11, 1000.000000000000000 ) ;
#291 = EDGE_CURVE ( 'NONE', #76, #30, #251, .T. ) ;
#292 = CYLINDRICAL_SURFACE ( 'NONE', #21, 2.999999999999998224 ) ;
#293 = DIRECTION ( 'NONE',  ( 3.491481338843133355E-15, -0.000000000000000000, 1.000000000000000000 ) ) ;
#294 = AXIS2_PLACEMENT_3D ( 'NONE', #98, #48, #152 ) ;
#295 = PRODUCT_DEFINITION_CONTEXT ( 'detailed design', #17, 'design' ) ;
#296 = PRESENTATION_LAYER_ASSIGNMENT (  '', '', ( #186 ) ) ;
#297 = EDGE_LOOP ( 'NONE', ( #298, #133, #73, #55 ) ) ;
#298 = ORIENTED_EDGE ( 'NONE', *, *, #25, .F. ) ;
#299 = DIRECTION ( 'NONE',  ( 4.275831445896958607E-31, 1.000000000000000000, 1.224646799147353207E-16 ) ) ;
#300 = AXIS2_PLACEMENT_3D ( 'NONE', #38, #230, #206 ) ;
#301 = ORIENTED_EDGE ( 'NONE', *, *, #291, .F. ) ;
#302 = ORIENTED_EDGE ( 'NONE', *, *, #267, .F. ) ;
#303 = DIRECTION ( 'NONE',  ( 0.000000000000000000, -1.000000000000000000, 0.000000000000000000 ) ) ;
#304 = CARTESIAN_POINT ( 'NONE',  ( 1.990144363140586139E-13, -6.980486755139912911E-15, 57.00000000000000000 ) ) ;
#305 = DIRECTION ( 'NONE',  ( 0.000000000000000000, 1.000000000000000000, 0.000000000000000000 ) ) ;
#306 = FACE_OUTER_BOUND ( 'NONE', #274, .T. ) ;
#307 = ORIENTED_EDGE ( 'NONE', *, *, #338, .T. ) ;
#308 = CARTESIAN_POINT ( 'NONE',  ( 1.969195475107526960E-13, -6.907007947191071191E-15, 56.39999999999999147 ) ) ;
#309 = CARTESIAN_POINT ( 'NONE',  ( -2.949999999999946887, 3.612708057484691604E-16, 15.00000000000001066 ) ) ;
#310 = DIRECTION ( 'NONE',  ( 3.491481338843133355E-15, -1.224646799147353207E-16, 1.000000000000000000 ) ) ;
#311 = DIRECTION ( 'NONE',  ( 1.000000000000000000, 0.000000000000000000, -3.491481338843132961E-15 ) ) ;
#312 = PLANE ( 'NONE',  #145 ) ;
#313 = FACE_OUTER_BOUND ( 'NONE', #323, .T. ) ;
#314 = EDGE_CURVE ( 'NONE', #79, #30, #34, .T. ) ;
#315 = FILL_AREA_STYLE_COLOUR ( '', #235 ) ;
#316 = AXIS2_PLACEMENT_3D ( 'NONE', #258, #137, #171 ) ;
#317 = FILL_AREA_STYLE_COLOUR ( '', #151 ) ;
#318 = EDGE_CURVE ( 'NONE', #64, #3, #56, .T. ) ;
#319 = APPLICATION_PROTOCOL_DEFINITION ( 'draft international standard', 'automotive_design', 1998, #17 ) ;
#320 = DIRECTION ( 'NONE',  ( 3.491481338843133355E-15, -1.224646799147353207E-16, 1.000000000000000000 ) ) ;
#321 = VECTOR ( 'NONE', #205, 1000.000000000000000 ) ;
#322 = FACE_OUTER_BOUND ( 'NONE', #229, .T. ) ;
#323 = EDGE_LOOP ( 'NONE', ( #218, #168, #281, #226 ) ) ;
#324 = DIRECTION ( 'NONE',  ( 2.486899575160350966E-14, -1.000000000000000000, 0.000000000000000000 ) ) ;
#325 = DIRECTION ( 'NONE',  ( -3.491481338843133355E-15, 1.224646799147353207E-16, -1.000000000000000000 ) ) ;
#326 = ORIENTED_EDGE ( 'NONE', *, *, #233, .F. ) ;
#327 = VERTEX_POINT ( 'NONE', #333 ) ;
#328 = DIRECTION ( 'NONE',  ( 3.491481338843133355E-15, -1.224646799147353207E-16, 1.000000000000000000 ) ) ;
#329 = ORIENTED_EDGE ( 'NONE', *, *, #149, .T. ) ;
#330 = EDGE_CURVE ( 'NONE', #110, #57, #123, .T. ) ;
#331 = DIRECTION ( 'NONE',  ( -3.491481338843133355E-15, 1.224646799147353207E-16, -1.000000000000000000 ) ) ;
#332 = ORIENTED_EDGE ( 'NONE', *, *, #318, .T. ) ;
#333 = CARTESIAN_POINT ( 'NONE',  ( 1.252561178193650578E-13, -2.999999999999996447, 15.13910427085457400 ) ) ;
#334 = STYLED_ITEM ( 'NONE', ( #94 ), #125 ) ;
#335 = VERTEX_POINT ( 'NONE', #283 ) ;
#336 =( NAMED_UNIT ( * ) SI_UNIT ( $, .STERADIAN. ) SOLID_ANGLE_UNIT ( ) );
#337 = CIRCLE ( 'NONE', #222, 2.949999999999998845 ) ;
#338 = EDGE_CURVE ( 'NONE', #327, #28, #214, .T. ) ;
#339 = SURFACE_STYLE_USAGE ( .BOTH. , #179 ) ;
#340 = CONICAL_SURFACE ( 'NONE', #161, 2.950000000000000622, 0.3450620389298190704 ) ;
#341 = PRESENTATION_LAYER_ASSIGNMENT (  '', '', ( #334 ) ) ;
#342 = FACE_OUTER_BOUND ( 'NONE', #197, .T. ) ;
#343 =( NAMED_UNIT ( * ) PLANE_ANGLE_UNIT ( ) SI_UNIT ( $, .RADIAN. ) );
ENDSEC;
END-ISO-10303-21;
