ISO-10303-21;
HEADER;
FILE_DESCRIPTION (( 'STEP AP214' ),
    '1' );
FILE_NAME ('952014.step',
    '2024-04-04T13:05:35',
    ( '' ),
    ( '' ),
    'SwSTEP 2.0',
    'SolidWorks 2022',
    '' );
FILE_SCHEMA (( 'AUTOMOTIVE_DESIGN' ));
ENDSEC;

DATA;
#1 = SHAPE_DEFINITION_REPRESENTATION ( #248, #64 ) ;
#2 =( GEOMETRIC_REPRESENTATION_CONTEXT ( 3 ) GLOBAL_UNCERTAINTY_ASSIGNED_CONTEXT ( ( #130 ) ) GLOBAL_UNIT_ASSIGNED_CONTEXT ( ( #149, #205, #302 ) ) REPRESENTATION_CONTEXT ( 'NONE', 'WORKASPACE' ) );
#3 = ORIENTED_EDGE ( 'NONE', *, *, #62, .T. ) ;
#4 = ADVANCED_FACE ( 'NONE', ( #308 ), #254, .T. ) ;
#5 = ORIENTED_EDGE ( 'NONE', *, *, #126, .F. ) ;
#6 = FACE_OUTER_BOUND ( 'NONE', #146, .T. ) ;
#7 = CARTESIAN_POINT ( 'NONE',  ( 2.500000000000041744, 0.000000000000000000, 12.49999999999999289 ) ) ;
#8 = EDGE_CURVE ( 'NONE', #221, #244, #284, .T. ) ;
#9 = AXIS2_PLACEMENT_3D ( 'NONE', #109, #112, #87 ) ;
#10 = EDGE_LOOP ( 'NONE', ( #118, #289 ) ) ;
#11 = DIRECTION ( 'NONE',  ( 4.275831445896958607E-31, 1.000000000000000000, 1.224646799147353454E-16 ) ) ;
#12 = DIRECTION ( 'NONE',  ( 3.491481338843133355E-15, -0.000000000000000000, 1.000000000000000000 ) ) ;
#13 = ADVANCED_FACE ( 'NONE', ( #173 ), #313, .T. ) ;
#14 = PLANE ( 'NONE',  #193 ) ;
#15 = DIRECTION ( 'NONE',  ( 4.275831445896958607E-31, 1.000000000000000000, 1.224646799147353454E-16 ) ) ;
#16 = DIRECTION ( 'NONE',  ( -3.491481338843133355E-15, 1.224646799147353207E-16, -1.000000000000000000 ) ) ;
#17 = AXIS2_PLACEMENT_3D ( 'NONE', #84, #192, #166 ) ;
#18 = LINE ( 'NONE', #46, #312 ) ;
#19 = DIRECTION ( 'NONE',  ( -3.491481338843133355E-15, 0.000000000000000000, -1.000000000000000000 ) ) ;
#20 = ADVANCED_FACE ( 'NONE', ( #95 ), #179, .F. ) ;
#21 = EDGE_LOOP ( 'NONE', ( #250, #197, #259, #190 ) ) ;
#22 = CARTESIAN_POINT ( 'NONE',  ( -2.499999999999955147, 3.061616997868381662E-16, 12.50000000000000888 ) ) ;
#23 = CIRCLE ( 'NONE', #110, 2.999999999999998224 ) ;
#24 = DIRECTION ( 'NONE',  ( -2.382254525458718258E-15, -0.7071067811865469066, -0.7071067811865482389 ) ) ;
#25 = CARTESIAN_POINT ( 'NONE',  ( 0.000000000000000000, 0.000000000000000000, 0.000000000000000000 ) ) ;
#26 = ORIENTED_EDGE ( 'NONE', *, *, #142, .F. ) ;
#27 = AXIS2_PLACEMENT_3D ( 'NONE', #317, #296, #54 ) ;
#28 = APPLICATION_CONTEXT ( 'automotive_design' ) ;
#29 = VERTEX_POINT ( 'NONE', #329 ) ;
#30 = CARTESIAN_POINT ( 'NONE',  ( 1.979669919124056928E-13, 2.399999999999995914, 57.00000000000000000 ) ) ;
#31 = ORIENTED_EDGE ( 'NONE', *, *, #78, .T. ) ;
#32 = ORIENTED_EDGE ( 'NONE', *, *, #219, .F. ) ;
#33 = CARTESIAN_POINT ( 'NONE',  ( 1.990144363140586139E-13, -6.980486755139912911E-15, 57.00000000000000000 ) ) ;
#34 = CIRCLE ( 'NONE', #124, 2.999999999999998224 ) ;
#35 = ORIENTED_EDGE ( 'NONE', *, *, #339, .T. ) ;
#36 = CARTESIAN_POINT ( 'NONE',  ( 4.364351673553916694E-14, 2.499999999999997780, 12.50000000000000000 ) ) ;
#37 = PRODUCT_DEFINITION ( 'UNKNOWN', '', #194, #340 ) ;
#38 = VERTEX_POINT ( 'NONE', #175 ) ;
#39 = CARTESIAN_POINT ( 'NONE',  ( -2.499999999999999556, 3.061616997868409272E-16, 8.728703347107831810E-15 ) ) ;
#40 = CYLINDRICAL_SURFACE ( 'NONE', #155, 2.499999999999998668 ) ;
#41 = FACE_OUTER_BOUND ( 'NONE', #128, .T. ) ;
#42 = COLOUR_RGB ( '',1.000000000000000000, 1.000000000000000000, 1.000000000000000000 ) ;
#43 = DIRECTION ( 'NONE',  ( 3.327098416510788398E-15, 0.3382550599108817835, 0.9410544694355825746 ) ) ;
#44 = DIRECTION ( 'NONE',  ( 0.000000000000000000, 1.000000000000000000, 0.000000000000000000 ) ) ;
#45 = CARTESIAN_POINT ( 'NONE',  ( 4.640869443451558296E-14, 2.499999999999997780, 12.50000000000000000 ) ) ;
#46 = CARTESIAN_POINT ( 'NONE',  ( 1.282749433769086881E-30, 2.999999999999998224, 3.673940397442057896E-16 ) ) ;
#47 = APPLICATION_PROTOCOL_DEFINITION ( 'draft international standard', 'automotive_design', 1998, #28 ) ;
#48 = AXIS2_PLACEMENT_3D ( 'NONE', #185, #342, #282 ) ;
#49 = AXIS2_PLACEMENT_3D ( 'NONE', #66, #174, #44 ) ;
#50 = ADVANCED_FACE ( 'NONE', ( #275 ), #40, .T. ) ;
#51 = DIRECTION ( 'NONE',  ( 3.491481338843133355E-15, -0.000000000000000000, 1.000000000000000000 ) ) ;
#52 = EDGE_CURVE ( 'NONE', #268, #29, #18, .T. ) ;
#53 = ORIENTED_EDGE ( 'NONE', *, *, #218, .F. ) ;
#54 = DIRECTION ( 'NONE',  ( 1.000000000000000000, 0.000000000000000000, -3.491481338843133355E-15 ) ) ;
#55 = VECTOR ( 'NONE', #196, 1000.000000000000000 ) ;
#56 = COLOUR_RGB ( '',1.000000000000000000, 1.000000000000000000, 1.000000000000000000 ) ;
#57 = EDGE_CURVE ( 'NONE', #82, #29, #171, .T. ) ;
#58 = EDGE_LOOP ( 'NONE', ( #153, #114, #236, #295 ) ) ;
#59 = SURFACE_STYLE_FILL_AREA ( #290 ) ;
#60 = CARTESIAN_POINT ( 'NONE',  ( 1.227099319523568668E-13, 2.999999999999991562, 56.40000000000000568 ) ) ;
#61 = SURFACE_STYLE_USAGE ( .BOTH. , #198 ) ;
#62 = EDGE_CURVE ( 'NONE', #154, #268, #23, .T. ) ;
#63 = VECTOR ( 'NONE', #43, 999.9999999999998863 ) ;
#64 = ADVANCED_BREP_SHAPE_REPRESENTATION ( '952014', ( #283, #293, #331 ), #2 ) ;
#65 = EDGE_LOOP ( 'NONE', ( #247, #3, #127, #265 ) ) ;
#66 = CARTESIAN_POINT ( 'NONE',  ( 4.364351673553916694E-14, -1.530808498934191521E-15, 12.50000000000000000 ) ) ;
#67 = CARTESIAN_POINT ( 'NONE',  ( 4.364351673553916694E-14, 0.000000000000000000, 12.50000000000000000 ) ) ;
#68 = CARTESIAN_POINT ( 'NONE',  ( 4.364351673553916694E-14, 0.000000000000000000, 12.50000000000000000 ) ) ;
#69 = LINE ( 'NONE', #276, #63 ) ;
#70 = DIRECTION ( 'NONE',  ( -3.491481338843133355E-15, 1.224646799147353207E-16, -1.000000000000000000 ) ) ;
#71 = VECTOR ( 'NONE', #24, 999.9999999999998863 ) ;
#72 = DIRECTION ( 'NONE',  ( -2.468850131082267316E-15, 0.7071067811865471286, -0.7071067811865479058 ) ) ;
#73 = AXIS2_PLACEMENT_3D ( 'NONE', #177, #333, #255 ) ;
#74 = EDGE_CURVE ( 'NONE', #286, #244, #93, .T. ) ;
#75 = CARTESIAN_POINT ( 'NONE',  ( 1.969195475107527465E-13, -6.907007947191072769E-15, 56.40000000000000568 ) ) ;
#76 = VECTOR ( 'NONE', #72, 1000.000000000000000 ) ;
#77 = DIRECTION ( 'NONE',  ( 3.491481338843133355E-15, -0.000000000000000000, 1.000000000000000000 ) ) ;
#78 = EDGE_CURVE ( 'NONE', #116, #29, #69, .T. ) ;
#79 = CARTESIAN_POINT ( 'NONE',  ( 1.972869415504969519E-13, -3.000000000000005329, 56.40000000000000568 ) ) ;
#80 = CLOSED_SHELL ( 'NONE', ( #50, #287, #20, #242 ) ) ;
#81 = DIRECTION ( 'NONE',  ( 1.000000000000000000, 0.000000000000000000, 0.000000000000000000 ) ) ;
#82 = VERTEX_POINT ( 'NONE', #258 ) ;
#83 = ORIENTED_EDGE ( 'NONE', *, *, #74, .T. ) ;
#84 = CARTESIAN_POINT ( 'NONE',  ( 0.000000000000000000, 0.000000000000000000, 0.000000000000000000 ) ) ;
#85 = ORIENTED_EDGE ( 'NONE', *, *, #238, .T. ) ;
#86 = ORIENTED_EDGE ( 'NONE', *, *, #57, .T. ) ;
#87 = DIRECTION ( 'NONE',  ( 1.000000000000000000, 0.000000000000000000, -3.469446951953616161E-15 ) ) ;
#88 = ORIENTED_EDGE ( 'NONE', *, *, #52, .F. ) ;
#89 = FILL_AREA_STYLE ('',( #323 ) ) ;
#90 = DIRECTION ( 'NONE',  ( -3.491481338843133355E-15, 1.224646799147347537E-16, -1.000000000000000000 ) ) ;
#91 = STYLED_ITEM ( 'NONE', ( #144 ), #64 ) ;
#92 = DIRECTION ( 'NONE',  ( -3.491481338843133355E-15, 1.224646799147353207E-16, -1.000000000000000000 ) ) ;
#93 = LINE ( 'NONE', #206, #224 ) ;
#94 = FACE_OUTER_BOUND ( 'NONE', #10, .T. ) ;
#95 = FACE_OUTER_BOUND ( 'NONE', #320, .T. ) ;
#96 = DIRECTION ( 'NONE',  ( 3.491481338843133355E-15, -1.224646799147353207E-16, 1.000000000000000000 ) ) ;
#97 = AXIS2_PLACEMENT_3D ( 'NONE', #277, #92, #15 ) ;
#98 = CARTESIAN_POINT ( 'NONE',  ( 1.969195475107527465E-13, 2.999999999999991562, 56.40000000000000568 ) ) ;
#99 = PRODUCT_RELATED_PRODUCT_CATEGORY ( 'part', '', ( #113 ) ) ;
#100 = EDGE_CURVE ( 'NONE', #151, #268, #306, .T. ) ;
#101 = CIRCLE ( 'NONE', #291, 2.500000000000000000 ) ;
#102 =( NAMED_UNIT ( * ) SI_UNIT ( $, .STERADIAN. ) SOLID_ANGLE_UNIT ( ) );
#103 = CIRCLE ( 'NONE', #73, 2.999999999999994671 ) ;
#104 = CARTESIAN_POINT ( 'NONE',  ( -2.499999999999954259, 3.061616997868381169E-16, 12.50000000000000888 ) ) ;
#105 = CARTESIAN_POINT ( 'NONE',  ( 4.364351673553916694E-14, -2.500000000000001332, 12.50000000000000000 ) ) ;
#106 = PLANE ( 'NONE',  #27 ) ;
#107 = CARTESIAN_POINT ( 'NONE',  ( 4.607191656475006761E-14, -2.500000000000001332, 12.50000000000000000 ) ) ;
#108 = ORIENTED_EDGE ( 'NONE', *, *, #178, .F. ) ;
#109 = CARTESIAN_POINT ( 'NONE',  ( 4.364351673553916694E-14, 0.000000000000000000, 12.50000000000000000 ) ) ;
#110 = AXIS2_PLACEMENT_3D ( 'NONE', #176, #234, #332 ) ;
#111 = MECHANICAL_DESIGN_GEOMETRIC_PRESENTATION_REPRESENTATION (  '', ( #233 ), #267 ) ;
#112 = DIRECTION ( 'NONE',  ( 3.491481338843133355E-15, -0.000000000000000000, 1.000000000000000000 ) ) ;
#113 = PRODUCT ( '952014', '952014', '', ( #189 ) ) ;
#114 = ORIENTED_EDGE ( 'NONE', *, *, #219, .T. ) ;
#115 = VECTOR ( 'NONE', #216, 1000.000000000000000 ) ;
#116 = VERTEX_POINT ( 'NONE', #45 ) ;
#117 = SURFACE_STYLE_FILL_AREA ( #140 ) ;
#118 = ORIENTED_EDGE ( 'NONE', *, *, #133, .T. ) ;
#119 =( NAMED_UNIT ( * ) SI_UNIT ( $, .STERADIAN. ) SOLID_ANGLE_UNIT ( ) );
#120 = EDGE_CURVE ( 'NONE', #38, #151, #266, .T. ) ;
#121 = SURFACE_STYLE_FILL_AREA ( #89 ) ;
#122 = EDGE_LOOP ( 'NONE', ( #228, #31, #138, #53 ) ) ;
#123 = DIRECTION ( 'NONE',  ( -3.491481338843133355E-15, 1.224646799147347537E-16, -1.000000000000000000 ) ) ;
#124 = AXIS2_PLACEMENT_3D ( 'NONE', #152, #123, #330 ) ;
#125 = ORIENTED_EDGE ( 'NONE', *, *, #271, .T. ) ;
#126 = EDGE_CURVE ( 'NONE', #38, #154, #341, .T. ) ;
#127 = ORIENTED_EDGE ( 'NONE', *, *, #52, .T. ) ;
#128 = EDGE_LOOP ( 'NONE', ( #161, #136, #226, #86 ) ) ;
#129 =( NAMED_UNIT ( * ) SI_UNIT ( $, .STERADIAN. ) SOLID_ANGLE_UNIT ( ) );
#130 = UNCERTAINTY_MEASURE_WITH_UNIT (LENGTH_MEASURE( 1.000000000000000082E-05 ), #149, 'distance_accuracy_value', 'NONE');
#131 = DIRECTION ( 'NONE',  ( 0.000000000000000000, -1.000000000000000000, 0.000000000000000000 ) ) ;
#132 = PRESENTATION_LAYER_ASSIGNMENT (  '', '', ( #91 ) ) ;
#133 = EDGE_CURVE ( 'NONE', #167, #116, #260, .T. ) ;
#134 = CARTESIAN_POINT ( 'NONE',  ( 4.364351673553916694E-14, -1.530808498934191521E-15, 12.50000000000000000 ) ) ;
#135 = UNCERTAINTY_MEASURE_WITH_UNIT (LENGTH_MEASURE( 1.000000000000000082E-05 ), #159, 'distance_accuracy_value', 'NONE');
#136 = ORIENTED_EDGE ( 'NONE', *, *, #133, .F. ) ;
#137 = AXIS2_PLACEMENT_3D ( 'NONE', #147, #16, #11 ) ;
#138 = ORIENTED_EDGE ( 'NONE', *, *, #303, .T. ) ;
#139 = ORIENTED_EDGE ( 'NONE', *, *, #8, .F. ) ;
#140 = FILL_AREA_STYLE ('',( #322 ) ) ;
#141 = DIRECTION ( 'NONE',  ( 3.491481338843133355E-15, -1.224646799147353207E-16, 1.000000000000000000 ) ) ;
#142 = EDGE_CURVE ( 'NONE', #286, #316, #257, .T. ) ;
#143 = EDGE_LOOP ( 'NONE', ( #204, #162 ) ) ;
#144 = PRESENTATION_STYLE_ASSIGNMENT (( #61 ) ) ;
#145 = CARTESIAN_POINT ( 'NONE',  ( 3.673940397442045077E-16, -2.999999999999998224, -3.673940397442070222E-16 ) ) ;
#146 = EDGE_LOOP ( 'NONE', ( #32, #125, #83, #139 ) ) ;
#147 = CARTESIAN_POINT ( 'NONE',  ( 0.000000000000000000, 0.000000000000000000, 0.000000000000000000 ) ) ;
#148 = CARTESIAN_POINT ( 'NONE',  ( 4.364351673553916694E-14, 0.000000000000000000, 12.50000000000000000 ) ) ;
#149 =( LENGTH_UNIT ( ) NAMED_UNIT ( * ) SI_UNIT ( .MILLI., .METRE. ) );
#150 = AXIS2_PLACEMENT_3D ( 'NONE', #134, #220, #241 ) ;
#151 = VERTEX_POINT ( 'NONE', #30 ) ;
#152 = CARTESIAN_POINT ( 'NONE',  ( 1.969195475107527465E-13, -6.907007947191072769E-15, 56.40000000000000568 ) ) ;
#153 = ORIENTED_EDGE ( 'NONE', *, *, #142, .T. ) ;
#154 = VERTEX_POINT ( 'NONE', #343 ) ;
#155 = AXIS2_PLACEMENT_3D ( 'NONE', #148, #12, #208 ) ;
#156 = MECHANICAL_DESIGN_GEOMETRIC_PRESENTATION_REPRESENTATION (  '', ( #239 ), #164 ) ;
#157 = CARTESIAN_POINT ( 'NONE',  ( 1.990144363140586139E-13, -6.980486755139912911E-15, 57.00000000000000000 ) ) ;
#158 = PRESENTATION_LAYER_ASSIGNMENT (  '', '', ( #239 ) ) ;
#159 =( LENGTH_UNIT ( ) NAMED_UNIT ( * ) SI_UNIT ( .MILLI., .METRE. ) );
#160 = FACE_OUTER_BOUND ( 'NONE', #321, .T. ) ;
#161 = ORIENTED_EDGE ( 'NONE', *, *, #78, .F. ) ;
#162 = ORIENTED_EDGE ( 'NONE', *, *, #120, .T. ) ;
#163 = CLOSED_SHELL ( 'NONE', ( #13, #203, #337, #309, #281, #4, #297, #231 ) ) ;
#164 =( GEOMETRIC_REPRESENTATION_CONTEXT ( 3 ) GLOBAL_UNCERTAINTY_ASSIGNED_CONTEXT ( ( #188 ) ) GLOBAL_UNIT_ASSIGNED_CONTEXT ( ( #180, #182, #102 ) ) REPRESENTATION_CONTEXT ( 'NONE', 'WORKASPACE' ) );
#165 = DIRECTION ( 'NONE',  ( -3.491481338843133355E-15, 1.224646799147347537E-16, -1.000000000000000000 ) ) ;
#166 = DIRECTION ( 'NONE',  ( 1.000000000000000000, 0.000000000000000000, -3.491481338843133355E-15 ) ) ;
#167 = VERTEX_POINT ( 'NONE', #107 ) ;
#168 = CARTESIAN_POINT ( 'NONE',  ( 0.000000000000000000, 0.000000000000000000, 0.000000000000000000 ) ) ;
#169 = ORIENTED_EDGE ( 'NONE', *, *, #271, .F. ) ;
#170 = LINE ( 'NONE', #145, #55 ) ;
#171 = CIRCLE ( 'NONE', #232, 2.999999999999994671 ) ;
#172 = AXIS2_PLACEMENT_3D ( 'NONE', #279, #19, #256 ) ;
#173 = FACE_OUTER_BOUND ( 'NONE', #21, .T. ) ;
#174 = DIRECTION ( 'NONE',  ( -3.491481338843133355E-15, 1.224646799147353207E-16, -1.000000000000000000 ) ) ;
#175 = CARTESIAN_POINT ( 'NONE',  ( 1.982976465481754853E-13, -2.400000000000009681, 57.00000000000000000 ) ) ;
#176 = CARTESIAN_POINT ( 'NONE',  ( 1.969195475107527465E-13, -6.907007947191072769E-15, 56.40000000000000568 ) ) ;
#177 = CARTESIAN_POINT ( 'NONE',  ( 4.850031639396096828E-14, -1.701162098983990969E-15, 13.89104270854589451 ) ) ;
#178 = EDGE_CURVE ( 'NONE', #151, #38, #298, .T. ) ;
#179 = PLANE ( 'NONE',  #172 ) ;
#180 =( LENGTH_UNIT ( ) NAMED_UNIT ( * ) SI_UNIT ( .MILLI., .METRE. ) );
#181 = EDGE_LOOP ( 'NONE', ( #26, #169 ) ) ;
#182 =( NAMED_UNIT ( * ) PLANE_ANGLE_UNIT ( ) SI_UNIT ( $, .RADIAN. ) );
#183 = FACE_OUTER_BOUND ( 'NONE', #122, .T. ) ;
#184 = AXIS2_PLACEMENT_3D ( 'NONE', #68, #77, #278 ) ;
#185 = CARTESIAN_POINT ( 'NONE',  ( 4.364351673553916694E-14, -1.530808498934191521E-15, 12.50000000000000000 ) ) ;
#186 = FACE_OUTER_BOUND ( 'NONE', #181, .T. ) ;
#187 = AXIS2_PLACEMENT_3D ( 'NONE', #75, #90, #335 ) ;
#188 = UNCERTAINTY_MEASURE_WITH_UNIT (LENGTH_MEASURE( 1.000000000000000082E-05 ), #180, 'distance_accuracy_value', 'NONE');
#189 = PRODUCT_CONTEXT ( 'NONE', #294, 'mechanical' ) ;
#190 = ORIENTED_EDGE ( 'NONE', *, *, #100, .F. ) ;
#191 = SURFACE_STYLE_USAGE ( .BOTH. , #217 ) ;
#192 = DIRECTION ( 'NONE',  ( 3.491481338843133355E-15, -0.000000000000000000, 1.000000000000000000 ) ) ;
#193 = AXIS2_PLACEMENT_3D ( 'NONE', #33, #141, #251 ) ;
#194 = PRODUCT_DEFINITION_FORMATION_WITH_SPECIFIED_SOURCE ( 'ANY', '', #113, .NOT_KNOWN. ) ;
#195 = CARTESIAN_POINT ( 'NONE',  ( 4.364351673553916694E-14, -1.530808498934191521E-15, 12.50000000000000000 ) ) ;
#196 = DIRECTION ( 'NONE',  ( -3.491481338843133355E-15, 1.224646799147353207E-16, -1.000000000000000000 ) ) ;
#197 = ORIENTED_EDGE ( 'NONE', *, *, #126, .T. ) ;
#198 = SURFACE_SIDE_STYLE ('',( #117 ) ) ;
#199 = DIRECTION ( 'NONE',  ( 0.000000000000000000, -1.000000000000000000, 0.000000000000000000 ) ) ;
#200 = CARTESIAN_POINT ( 'NONE',  ( 4.850031639396096828E-14, -1.701162098983990969E-15, 13.89104270854589451 ) ) ;
#201 = PRESENTATION_STYLE_ASSIGNMENT (( #326 ) ) ;
#202 = CONICAL_SURFACE ( 'NONE', #48, 2.499999999999999556, 0.3450620389298189039 ) ;
#203 = ADVANCED_FACE ( 'NONE', ( #183 ), #202, .T. ) ;
#204 = ORIENTED_EDGE ( 'NONE', *, *, #178, .T. ) ;
#205 =( NAMED_UNIT ( * ) PLANE_ANGLE_UNIT ( ) SI_UNIT ( $, .RADIAN. ) );
#206 = CARTESIAN_POINT ( 'NONE',  ( 2.500000000000042633, 0.000000000000000000, 12.49999999999999289 ) ) ;
#207 = PLANE ( 'NONE',  #210 ) ;
#208 = DIRECTION ( 'NONE',  ( 1.000000000000000000, 0.000000000000000000, -3.469446951953616161E-15 ) ) ;
#209 = APPLICATION_PROTOCOL_DEFINITION ( 'draft international standard', 'automotive_design', 1998, #294 ) ;
#210 = AXIS2_PLACEMENT_3D ( 'NONE', #36, #70, #325 ) ;
#211 = ORIENTED_EDGE ( 'NONE', *, *, #249, .T. ) ;
#212 = LINE ( 'NONE', #22, #213 ) ;
#213 = VECTOR ( 'NONE', #51, 1000.000000000000000 ) ;
#214 = AXIS2_PLACEMENT_3D ( 'NONE', #195, #96, #235 ) ;
#215 = LINE ( 'NONE', #105, #115 ) ;
#216 = DIRECTION ( 'NONE',  ( 3.285674118869262210E-15, -0.3382550599108819500, 0.9410544694355824635 ) ) ;
#217 = SURFACE_SIDE_STYLE ('',( #59 ) ) ;
#218 = EDGE_CURVE ( 'NONE', #167, #82, #215, .T. ) ;
#219 = EDGE_CURVE ( 'NONE', #316, #221, #212, .T. ) ;
#220 = DIRECTION ( 'NONE',  ( -3.491481338843133355E-15, 1.224646799147353207E-16, -1.000000000000000000 ) ) ;
#221 = VERTEX_POINT ( 'NONE', #104 ) ;
#222 = ORIENTED_EDGE ( 'NONE', *, *, #8, .T. ) ;
#223 = CYLINDRICAL_SURFACE ( 'NONE', #9, 2.499999999999998668 ) ;
#224 = VECTOR ( 'NONE', #304, 1000.000000000000000 ) ;
#225 = PRESENTATION_LAYER_ASSIGNMENT (  '', '', ( #233 ) ) ;
#226 = ORIENTED_EDGE ( 'NONE', *, *, #218, .T. ) ;
#227 = DIRECTION ( 'NONE',  ( 1.000000000000000000, 0.000000000000000000, -3.491481338843133355E-15 ) ) ;
#228 = ORIENTED_EDGE ( 'NONE', *, *, #310, .F. ) ;
#229 = SURFACE_SIDE_STYLE ('',( #121 ) ) ;
#230 = DIRECTION ( 'NONE',  ( 1.000000000000000000, 0.000000000000000000, -3.469446951953617344E-15 ) ) ;
#231 = ADVANCED_FACE ( 'NONE', ( #160 ), #307, .T. ) ;
#232 = AXIS2_PLACEMENT_3D ( 'NONE', #200, #299, #273 ) ;
#233 = STYLED_ITEM ( 'NONE', ( #269 ), #293 ) ;
#234 = DIRECTION ( 'NONE',  ( -3.491481338843133355E-15, 1.224646799147347537E-16, -1.000000000000000000 ) ) ;
#235 = DIRECTION ( 'NONE',  ( 0.000000000000000000, -1.000000000000000000, 0.000000000000000000 ) ) ;
#236 = ORIENTED_EDGE ( 'NONE', *, *, #238, .F. ) ;
#237 = ORIENTED_EDGE ( 'NONE', *, *, #100, .T. ) ;
#238 = EDGE_CURVE ( 'NONE', #244, #221, #328, .T. ) ;
#239 = STYLED_ITEM ( 'NONE', ( #201 ), #283 ) ;
#240 = DIRECTION ( 'NONE',  ( 3.491481338843133355E-15, -1.224646799147353207E-16, 1.000000000000000000 ) ) ;
#241 = DIRECTION ( 'NONE',  ( 0.000000000000000000, 1.000000000000000000, 0.000000000000000000 ) ) ;
#242 = ADVANCED_FACE ( 'NONE', ( #186 ), #106, .F. ) ;
#243 = AXIS2_PLACEMENT_3D ( 'NONE', #157, #240, #131 ) ;
#244 = VERTEX_POINT ( 'NONE', #7 ) ;
#245 = FILL_AREA_STYLE_COLOUR ( '', #300 ) ;
#246 = ORIENTED_EDGE ( 'NONE', *, *, #303, .F. ) ;
#247 = ORIENTED_EDGE ( 'NONE', *, *, #249, .F. ) ;
#248 = PRODUCT_DEFINITION_SHAPE ( 'NONE', 'NONE',  #37 ) ;
#249 = EDGE_CURVE ( 'NONE', #154, #82, #170, .T. ) ;
#250 = ORIENTED_EDGE ( 'NONE', *, *, #120, .F. ) ;
#251 = DIRECTION ( 'NONE',  ( -4.275831445896958607E-31, -1.000000000000000000, -1.224646799147353207E-16 ) ) ;
#252 = DIRECTION ( 'NONE',  ( 3.491481338843133355E-15, -1.224646799147353207E-16, 1.000000000000000000 ) ) ;
#253 = DIRECTION ( 'NONE',  ( 3.491481338843133355E-15, -0.000000000000000000, 1.000000000000000000 ) ) ;
#254 = CYLINDRICAL_SURFACE ( 'NONE', #97, 2.999999999999998224 ) ;
#255 = DIRECTION ( 'NONE',  ( 0.000000000000000000, 1.000000000000000000, 0.000000000000000000 ) ) ;
#256 = DIRECTION ( 'NONE',  ( -1.000000000000000000, 0.000000000000000000, 3.491481338843133355E-15 ) ) ;
#257 = CIRCLE ( 'NONE', #17, 2.500000000000000000 ) ;
#258 = CARTESIAN_POINT ( 'NONE',  ( 1.230773259921010218E-13, -2.999999999999996447, 13.89104270854589451 ) ) ;
#259 = ORIENTED_EDGE ( 'NONE', *, *, #339, .F. ) ;
#260 = CIRCLE ( 'NONE', #150, 2.499999999999999556 ) ;
#261 = UNCERTAINTY_MEASURE_WITH_UNIT (LENGTH_MEASURE( 1.000000000000000082E-05 ), #311, 'distance_accuracy_value', 'NONE');
#262 = CARTESIAN_POINT ( 'NONE',  ( 2.500000000000000000, 0.000000000000000000, -8.728703347107833388E-15 ) ) ;
#263 = AXIS2_PLACEMENT_3D ( 'NONE', #272, #252, #199 ) ;
#264 = CIRCLE ( 'NONE', #49, 2.499999999999999556 ) ;
#265 = ORIENTED_EDGE ( 'NONE', *, *, #57, .F. ) ;
#266 = CIRCLE ( 'NONE', #243, 2.400000000000003020 ) ;
#267 =( GEOMETRIC_REPRESENTATION_CONTEXT ( 3 ) GLOBAL_UNCERTAINTY_ASSIGNED_CONTEXT ( ( #261 ) ) GLOBAL_UNIT_ASSIGNED_CONTEXT ( ( #311, #314, #119 ) ) REPRESENTATION_CONTEXT ( 'NONE', 'WORKASPACE' ) );
#268 = VERTEX_POINT ( 'NONE', #60 ) ;
#269 = PRESENTATION_STYLE_ASSIGNMENT (( #191 ) ) ;
#270 = FACE_OUTER_BOUND ( 'NONE', #143, .T. ) ;
#271 = EDGE_CURVE ( 'NONE', #316, #286, #101, .T. ) ;
#272 = CARTESIAN_POINT ( 'NONE',  ( 1.990144363140586139E-13, -6.980486755139912911E-15, 57.00000000000000000 ) ) ;
#273 = DIRECTION ( 'NONE',  ( 0.000000000000000000, 1.000000000000000000, 0.000000000000000000 ) ) ;
#274 = FACE_OUTER_BOUND ( 'NONE', #318, .T. ) ;
#275 = FACE_OUTER_BOUND ( 'NONE', #58, .T. ) ;
#276 = CARTESIAN_POINT ( 'NONE',  ( 4.394967843532600481E-14, 2.499999999999997780, 12.50000000000000000 ) ) ;
#277 = CARTESIAN_POINT ( 'NONE',  ( 0.000000000000000000, 0.000000000000000000, 0.000000000000000000 ) ) ;
#278 = DIRECTION ( 'NONE',  ( 1.000000000000000000, 0.000000000000000000, -3.469446951953617344E-15 ) ) ;
#279 = CARTESIAN_POINT ( 'NONE',  ( 4.364351673553916694E-14, 2.499999999999997780, 12.50000000000000000 ) ) ;
#280 = AXIS2_PLACEMENT_3D ( 'NONE', #288, #165, #327 ) ;
#281 = ADVANCED_FACE ( 'NONE', ( #270 ), #14, .T. ) ;
#282 = DIRECTION ( 'NONE',  ( 0.000000000000000000, -1.000000000000000000, 0.000000000000000000 ) ) ;
#283 = MANIFOLD_SOLID_BREP ( 'Corps-Déplacer/Copier1[1]', #163 ) ;
#284 = CIRCLE ( 'NONE', #336, 2.499999999999997780 ) ;
#285 = CONICAL_SURFACE ( 'NONE', #214, 2.499999999999999556, 0.3450620389298189039 ) ;
#286 = VERTEX_POINT ( 'NONE', #262 ) ;
#287 = ADVANCED_FACE ( 'NONE', ( #6 ), #223, .T. ) ;
#288 = CARTESIAN_POINT ( 'NONE',  ( 1.969195475107527465E-13, -6.907007947191072769E-15, 56.40000000000000568 ) ) ;
#289 = ORIENTED_EDGE ( 'NONE', *, *, #310, .T. ) ;
#290 = FILL_AREA_STYLE ('',( #245 ) ) ;
#291 = AXIS2_PLACEMENT_3D ( 'NONE', #168, #253, #227 ) ;
#292 = MECHANICAL_DESIGN_GEOMETRIC_PRESENTATION_REPRESENTATION (  '', ( #91 ), #319 ) ;
#293 = MANIFOLD_SOLID_BREP ( 'Corps-Déplacer/Copier1[2]', #80 ) ;
#294 = APPLICATION_CONTEXT ( 'automotive_design' ) ;
#295 = ORIENTED_EDGE ( 'NONE', *, *, #74, .F. ) ;
#296 = DIRECTION ( 'NONE',  ( 3.491481338843133355E-15, -0.000000000000000000, 1.000000000000000000 ) ) ;
#297 = ADVANCED_FACE ( 'NONE', ( #41 ), #285, .T. ) ;
#298 = CIRCLE ( 'NONE', #263, 2.400000000000003020 ) ;
#299 = DIRECTION ( 'NONE',  ( -3.491481338843133355E-15, 1.224646799147353207E-16, -1.000000000000000000 ) ) ;
#300 = COLOUR_RGB ( '',1.000000000000000000, 1.000000000000000000, 1.000000000000000000 ) ;
#301 = ORIENTED_EDGE ( 'NONE', *, *, #62, .F. ) ;
#302 =( NAMED_UNIT ( * ) SI_UNIT ( $, .STERADIAN. ) SOLID_ANGLE_UNIT ( ) );
#303 = EDGE_CURVE ( 'NONE', #29, #82, #103, .T. ) ;
#304 = DIRECTION ( 'NONE',  ( 3.491481338843133355E-15, -0.000000000000000000, 1.000000000000000000 ) ) ;
#305 = CYLINDRICAL_SURFACE ( 'NONE', #137, 2.999999999999998224 ) ;
#306 = LINE ( 'NONE', #98, #76 ) ;
#307 = CONICAL_SURFACE ( 'NONE', #280, 2.999999999999998224, 0.7853981633974476129 ) ;
#308 = FACE_OUTER_BOUND ( 'NONE', #65, .T. ) ;
#309 = ADVANCED_FACE ( 'NONE', ( #94 ), #207, .T. ) ;
#310 = EDGE_CURVE ( 'NONE', #116, #167, #264, .T. ) ;
#311 =( LENGTH_UNIT ( ) NAMED_UNIT ( * ) SI_UNIT ( .MILLI., .METRE. ) );
#312 = VECTOR ( 'NONE', #324, 1000.000000000000000 ) ;
#313 = CONICAL_SURFACE ( 'NONE', #187, 2.999999999999998224, 0.7853981633974476129 ) ;
#314 =( NAMED_UNIT ( * ) PLANE_ANGLE_UNIT ( ) SI_UNIT ( $, .RADIAN. ) );
#315 =( NAMED_UNIT ( * ) PLANE_ANGLE_UNIT ( ) SI_UNIT ( $, .RADIAN. ) );
#316 = VERTEX_POINT ( 'NONE', #39 ) ;
#317 = CARTESIAN_POINT ( 'NONE',  ( 1.068957861474239652E-31, 2.500000000000000000, 3.061616997868383634E-17 ) ) ;
#318 = EDGE_LOOP ( 'NONE', ( #35, #211, #246, #88 ) ) ;
#319 =( GEOMETRIC_REPRESENTATION_CONTEXT ( 3 ) GLOBAL_UNCERTAINTY_ASSIGNED_CONTEXT ( ( #135 ) ) GLOBAL_UNIT_ASSIGNED_CONTEXT ( ( #159, #315, #129 ) ) REPRESENTATION_CONTEXT ( 'NONE', 'WORKASPACE' ) );
#320 = EDGE_LOOP ( 'NONE', ( #85, #222 ) ) ;
#321 = EDGE_LOOP ( 'NONE', ( #5, #108, #237, #301 ) ) ;
#322 = FILL_AREA_STYLE_COLOUR ( '', #56 ) ;
#323 = FILL_AREA_STYLE_COLOUR ( '', #42 ) ;
#324 = DIRECTION ( 'NONE',  ( -3.491481338843133355E-15, 1.224646799147353207E-16, -1.000000000000000000 ) ) ;
#325 = DIRECTION ( 'NONE',  ( 4.275831445896958607E-31, 1.000000000000000000, 1.224646799147353207E-16 ) ) ;
#326 = SURFACE_STYLE_USAGE ( .BOTH. , #229 ) ;
#327 = DIRECTION ( 'NONE',  ( 0.000000000000000000, 1.000000000000000000, 0.000000000000000000 ) ) ;
#328 = CIRCLE ( 'NONE', #184, 2.499999999999997780 ) ;
#329 = CARTESIAN_POINT ( 'NONE',  ( 4.850031639396096828E-14, 2.999999999999993339, 13.89104270854589451 ) ) ;
#330 = DIRECTION ( 'NONE',  ( 2.575717417130363805E-14, -1.000000000000000000, 0.000000000000000000 ) ) ;
#331 = AXIS2_PLACEMENT_3D ( 'NONE', #25, #338, #81 ) ;
#332 = DIRECTION ( 'NONE',  ( -2.486899575160350966E-14, -1.000000000000000000, 0.000000000000000000 ) ) ;
#333 = DIRECTION ( 'NONE',  ( -3.491481338843133355E-15, 1.224646799147353207E-16, -1.000000000000000000 ) ) ;
#334 = DIRECTION ( 'NONE',  ( 3.491481338843133355E-15, -0.000000000000000000, 1.000000000000000000 ) ) ;
#335 = DIRECTION ( 'NONE',  ( 0.000000000000000000, 1.000000000000000000, 0.000000000000000000 ) ) ;
#336 = AXIS2_PLACEMENT_3D ( 'NONE', #67, #334, #230 ) ;
#337 = ADVANCED_FACE ( 'NONE', ( #274 ), #305, .T. ) ;
#338 = DIRECTION ( 'NONE',  ( 0.000000000000000000, 0.000000000000000000, 1.000000000000000000 ) ) ;
#339 = EDGE_CURVE ( 'NONE', #268, #154, #34, .T. ) ;
#340 = PRODUCT_DEFINITION_CONTEXT ( 'detailed design', #28, 'design' ) ;
#341 = LINE ( 'NONE', #79, #71 ) ;
#342 = DIRECTION ( 'NONE',  ( 3.491481338843133355E-15, -1.224646799147353207E-16, 1.000000000000000000 ) ) ;
#343 = CARTESIAN_POINT ( 'NONE',  ( 1.230773259921010218E-13, -3.000000000000005329, 56.40000000000000568 ) ) ;
ENDSEC;
END-ISO-10303-21;
