ISO-10303-21;
HEADER;
FILE_DESCRIPTION (( 'STEP AP214' ),
    '1' );
FILE_NAME ('952013.step',
    '2024-04-04T13:05:34',
    ( '' ),
    ( '' ),
    'SwSTEP 2.0',
    'SolidWorks 2022',
    '' );
FILE_SCHEMA (( 'AUTOMOTIVE_DESIGN' ));
ENDSEC;

DATA;
#1 = UNCERTAINTY_MEASURE_WITH_UNIT (LENGTH_MEASURE( 1.000000000000000082E-05 ), #82, 'distance_accuracy_value', 'NONE');
#2 = DIRECTION ( 'NONE',  ( 0.000000000000000000, 1.000000000000000000, 0.000000000000000000 ) ) ;
#3 = CIRCLE ( 'NONE', #184, 2.999999999999994227 ) ;
#4 = DIRECTION ( 'NONE',  ( 0.000000000000000000, -1.000000000000000000, 0.000000000000000000 ) ) ;
#5 = EDGE_LOOP ( 'NONE', ( #91, #217, #264, #318 ) ) ;
#6 = DIRECTION ( 'NONE',  ( -1.000000000000000000, 0.000000000000000000, 3.491481338843133355E-15 ) ) ;
#7 = ORIENTED_EDGE ( 'NONE', *, *, #258, .F. ) ;
#8 = DIRECTION ( 'NONE',  ( 1.000000000000000000, 0.000000000000000000, -3.469446951953614978E-15 ) ) ;
#9 = AXIS2_PLACEMENT_3D ( 'NONE', #38, #139, #58 ) ;
#10 = CARTESIAN_POINT ( 'NONE',  ( 3.142333204958820020E-14, -1.102182119232617714E-15, 9.000000000000000000 ) ) ;
#11 = EDGE_CURVE ( 'NONE', #252, #185, #322, .T. ) ;
#12 = DIRECTION ( 'NONE',  ( -2.468850131082273627E-15, 0.7071067811865451302, -0.7071067811865500152 ) ) ;
#13 = CARTESIAN_POINT ( 'NONE',  ( 1.193956334783364233E-13, -3.000000000000005329, 56.40000000000000568 ) ) ;
#14 = CARTESIAN_POINT ( 'NONE',  ( 3.142333204958820020E-14, 0.000000000000000000, 9.000000000000000000 ) ) ;
#15 = LINE ( 'NONE', #115, #303 ) ;
#16 = EDGE_CURVE ( 'NONE', #233, #154, #116, .T. ) ;
#17 = MECHANICAL_DESIGN_GEOMETRIC_PRESENTATION_REPRESENTATION (  '', ( #158 ), #153 ) ;
#18 =( NAMED_UNIT ( * ) PLANE_ANGLE_UNIT ( ) SI_UNIT ( $, .RADIAN. ) );
#19 = PRESENTATION_LAYER_ASSIGNMENT (  '', '', ( #339 ) ) ;
#20 = ADVANCED_FACE ( 'NONE', ( #214 ), #200, .T. ) ;
#21 = ORIENTED_EDGE ( 'NONE', *, *, #234, .F. ) ;
#22 = EDGE_LOOP ( 'NONE', ( #21, #259, #102, #92 ) ) ;
#23 = LINE ( 'NONE', #309, #128 ) ;
#24 = ORIENTED_EDGE ( 'NONE', *, *, #125, .T. ) ;
#25 = CARTESIAN_POINT ( 'NONE',  ( 4.113693136643182181E-14, -1.442889319332217595E-15, 11.78208541709179613 ) ) ;
#26 = EDGE_CURVE ( 'NONE', #154, #228, #157, .T. ) ;
#27 = ORIENTED_EDGE ( 'NONE', *, *, #11, .T. ) ;
#28 = CONICAL_SURFACE ( 'NONE', #317, 2.999999999999998224, 0.7853981633974447263 ) ;
#29 = CARTESIAN_POINT ( 'NONE',  ( 2.000000000000030198, 0.000000000000000000, 8.999999999999992895 ) ) ;
#30 = VERTEX_POINT ( 'NONE', #326 ) ;
#31 = APPLICATION_CONTEXT ( 'automotive_design' ) ;
#32 = DIRECTION ( 'NONE',  ( 3.491481338843133355E-15, -0.000000000000000000, 1.000000000000000000 ) ) ;
#33 = ORIENTED_EDGE ( 'NONE', *, *, #209, .F. ) ;
#34 = CARTESIAN_POINT ( 'NONE',  ( 1.990144363140586139E-13, -6.980486755139912911E-15, 57.00000000000000000 ) ) ;
#35 = EDGE_LOOP ( 'NONE', ( #337, #249 ) ) ;
#36 = PRESENTATION_STYLE_ASSIGNMENT (( #266 ) ) ;
#37 = DIRECTION ( 'NONE',  ( 1.000000000000000000, 0.000000000000000000, -3.491481338843133355E-15 ) ) ;
#38 = CARTESIAN_POINT ( 'NONE',  ( 0.000000000000000000, 0.000000000000000000, 0.000000000000000000 ) ) ;
#39 = CIRCLE ( 'NONE', #275, 2.400000000000006128 ) ;
#40 = DIRECTION ( 'NONE',  ( 1.000000000000000000, 0.000000000000000000, -3.491481338843133355E-15 ) ) ;
#41 = AXIS2_PLACEMENT_3D ( 'NONE', #340, #186, #257 ) ;
#42 = CARTESIAN_POINT ( 'NONE',  ( 3.142333204958820020E-14, -1.102182119232617714E-15, 9.000000000000000000 ) ) ;
#43 =( LENGTH_UNIT ( ) NAMED_UNIT ( * ) SI_UNIT ( .MILLI., .METRE. ) );
#44 = UNCERTAINTY_MEASURE_WITH_UNIT (LENGTH_MEASURE( 1.000000000000000082E-05 ), #304, 'distance_accuracy_value', 'NONE');
#45 = SURFACE_STYLE_USAGE ( .BOTH. , #300 ) ;
#46 = AXIS2_PLACEMENT_3D ( 'NONE', #240, #325, #195 ) ;
#47 = PLANE ( 'NONE',  #118 ) ;
#48 = AXIS2_PLACEMENT_3D ( 'NONE', #147, #246, #6 ) ;
#49 = DIRECTION ( 'NONE',  ( -3.491481338843133355E-15, 1.224646799147353207E-16, -1.000000000000000000 ) ) ;
#50 = FACE_OUTER_BOUND ( 'NONE', #35, .T. ) ;
#51 = STYLED_ITEM ( 'NONE', ( #36 ), #68 ) ;
#52 = FACE_OUTER_BOUND ( 'NONE', #129, .T. ) ;
#53 = EDGE_CURVE ( 'NONE', #252, #180, #301, .T. ) ;
#54 = EDGE_LOOP ( 'NONE', ( #211, #268, #86, #149 ) ) ;
#55 = CARTESIAN_POINT ( 'NONE',  ( -1.999999999999968470, 2.449293598294705921E-16, 9.000000000000007105 ) ) ;
#56 = ORIENTED_EDGE ( 'NONE', *, *, #53, .T. ) ;
#57 = DIRECTION ( 'NONE',  ( 3.491481338843133355E-15, -0.000000000000000000, 1.000000000000000000 ) ) ;
#58 = DIRECTION ( 'NONE',  ( 4.275831445896958607E-31, 1.000000000000000000, 1.224646799147353454E-16 ) ) ;
#59 = ORIENTED_EDGE ( 'NONE', *, *, #173, .T. ) ;
#60 = DIRECTION ( 'NONE',  ( 4.275831445896958607E-31, 1.000000000000000000, 1.224646799147353207E-16 ) ) ;
#61 = EDGE_CURVE ( 'NONE', #126, #30, #162, .T. ) ;
#62 = FILL_AREA_STYLE ('',( #287 ) ) ;
#63 = LINE ( 'NONE', #193, #75 ) ;
#64 = AXIS2_PLACEMENT_3D ( 'NONE', #34, #135, #4 ) ;
#65 = EDGE_LOOP ( 'NONE', ( #85, #213 ) ) ;
#66 = AXIS2_PLACEMENT_3D ( 'NONE', #100, #32, #260 ) ;
#67 = DIRECTION ( 'NONE',  ( 3.491481338843133355E-15, -0.000000000000000000, 1.000000000000000000 ) ) ;
#68 = MANIFOLD_SOLID_BREP ( 'Corps-Déplacer/Copier1[1]', #235 ) ;
#69 = UNCERTAINTY_MEASURE_WITH_UNIT (LENGTH_MEASURE( 1.000000000000000082E-05 ), #294, 'distance_accuracy_value', 'NONE');
#70 = VECTOR ( 'NONE', #12, 1000.000000000000114 ) ;
#71 = EDGE_CURVE ( 'NONE', #180, #252, #313, .T. ) ;
#72 = ORIENTED_EDGE ( 'NONE', *, *, #229, .F. ) ;
#73 = PLANE ( 'NONE',  #316 ) ;
#74 = VECTOR ( 'NONE', #109, 1000.000000000000000 ) ;
#75 = VECTOR ( 'NONE', #161, 1000.000000000000114 ) ;
#76 = LINE ( 'NONE', #319, #296 ) ;
#77 = EDGE_CURVE ( 'NONE', #83, #111, #248, .T. ) ;
#78 = UNCERTAINTY_MEASURE_WITH_UNIT (LENGTH_MEASURE( 1.000000000000000082E-05 ), #43, 'distance_accuracy_value', 'NONE');
#79 = CARTESIAN_POINT ( 'NONE',  ( 1.969195475107527465E-13, -6.907007947191072769E-15, 56.40000000000000568 ) ) ;
#80 = CYLINDRICAL_SURFACE ( 'NONE', #164, 1.999999999999999556 ) ;
#81 = DIRECTION ( 'NONE',  ( -2.382254525458725753E-15, -0.7071067811865449082, -0.7071067811865502373 ) ) ;
#82 =( LENGTH_UNIT ( ) NAMED_UNIT ( * ) SI_UNIT ( .MILLI., .METRE. ) );
#83 = VERTEX_POINT ( 'NONE', #13 ) ;
#84 = DIRECTION ( 'NONE',  ( 0.000000000000000000, 1.000000000000000000, 0.000000000000000000 ) ) ;
#85 = ORIENTED_EDGE ( 'NONE', *, *, #168, .F. ) ;
#86 = ORIENTED_EDGE ( 'NONE', *, *, #209, .T. ) ;
#87 = SURFACE_STYLE_FILL_AREA ( #62 ) ;
#88 = ADVANCED_FACE ( 'NONE', ( #189 ), #114, .F. ) ;
#89 = AXIS2_PLACEMENT_3D ( 'NONE', #14, #242, #298 ) ;
#90 = DIRECTION ( 'NONE',  ( -3.491481338843133355E-15, 1.224646799147353207E-16, -1.000000000000000000 ) ) ;
#91 = ORIENTED_EDGE ( 'NONE', *, *, #270, .F. ) ;
#92 = ORIENTED_EDGE ( 'NONE', *, *, #334, .F. ) ;
#93 = SHAPE_DEFINITION_REPRESENTATION ( #272, #141 ) ;
#94 = PRESENTATION_LAYER_ASSIGNMENT (  '', '', ( #51 ) ) ;
#95 = DIRECTION ( 'NONE',  ( 3.491481338843133355E-15, -1.224646799147353207E-16, 1.000000000000000000 ) ) ;
#96 = CIRCLE ( 'NONE', #331, 2.000000000000000000 ) ;
#97 = APPLICATION_PROTOCOL_DEFINITION ( 'draft international standard', 'automotive_design', 1998, #31 ) ;
#98 = PRODUCT ( '952013', '952013', '', ( #143 ) ) ;
#99 = DIRECTION ( 'NONE',  ( 1.000000000000000000, 0.000000000000000000, -3.469446951953615767E-15 ) ) ;
#100 = CARTESIAN_POINT ( 'NONE',  ( 3.142333204958820020E-14, 0.000000000000000000, 9.000000000000000000 ) ) ;
#101 = DIRECTION ( 'NONE',  ( -3.491481338843133355E-15, 1.224646799147353207E-16, -1.000000000000000000 ) ) ;
#102 = ORIENTED_EDGE ( 'NONE', *, *, #265, .F. ) ;
#103 = DIRECTION ( 'NONE',  ( 3.491481338843133355E-15, -0.000000000000000000, 1.000000000000000000 ) ) ;
#104 = LINE ( 'NONE', #55, #198 ) ;
#105 = AXIS2_PLACEMENT_3D ( 'NONE', #42, #95, #117 ) ;
#106 = ORIENTED_EDGE ( 'NONE', *, *, #229, .T. ) ;
#107 = FACE_OUTER_BOUND ( 'NONE', #5, .T. ) ;
#108 = EDGE_LOOP ( 'NONE', ( #160, #123, #27, #216 ) ) ;
#109 = DIRECTION ( 'NONE',  ( 3.285674118869261816E-15, -0.3382550599108820610, 0.9410544694355824635 ) ) ;
#110 = VECTOR ( 'NONE', #289, 1000.000000000000000 ) ;
#111 = VERTEX_POINT ( 'NONE', #238 ) ;
#112 = PRESENTATION_LAYER_ASSIGNMENT (  '', '', ( #158 ) ) ;
#113 = DIRECTION ( 'NONE',  ( -3.491481338843133355E-15, 1.224646799147353207E-16, -1.000000000000000000 ) ) ;
#114 = PLANE ( 'NONE',  #288 ) ;
#115 = CARTESIAN_POINT ( 'NONE',  ( 1.282749433769086881E-30, 2.999999999999998224, 3.673940397442057896E-16 ) ) ;
#116 = CIRCLE ( 'NONE', #307, 2.000000000000000000 ) ;
#117 = DIRECTION ( 'NONE',  ( 0.000000000000000000, -1.000000000000000000, 0.000000000000000000 ) ) ;
#118 = AXIS2_PLACEMENT_3D ( 'NONE', #208, #204, #253 ) ;
#119 = SURFACE_STYLE_USAGE ( .BOTH. , #245 ) ;
#120 = EDGE_CURVE ( 'NONE', #111, #336, #15, .T. ) ;
#121 = AXIS2_PLACEMENT_3D ( 'NONE', #188, #101, #267 ) ;
#122 = CONICAL_SURFACE ( 'NONE', #170, 2.999999999999998224, 0.7853981633974447263 ) ;
#123 = ORIENTED_EDGE ( 'NONE', *, *, #53, .F. ) ;
#124 = CARTESIAN_POINT ( 'NONE',  ( 1.969195475107527465E-13, -6.907007947191072769E-15, 56.40000000000000568 ) ) ;
#125 = EDGE_CURVE ( 'NONE', #83, #185, #76, .T. ) ;
#126 = VERTEX_POINT ( 'NONE', #172 ) ;
#127 = DIRECTION ( 'NONE',  ( -3.491481338843133355E-15, 1.224646799147353207E-16, -1.000000000000000000 ) ) ;
#128 = VECTOR ( 'NONE', #81, 1000.000000000000114 ) ;
#129 = EDGE_LOOP ( 'NONE', ( #237, #24, #33, #223 ) ) ;
#130 = FACE_OUTER_BOUND ( 'NONE', #22, .T. ) ;
#131 = EDGE_LOOP ( 'NONE', ( #320, #310, #324, #342 ) ) ;
#132 = CARTESIAN_POINT ( 'NONE',  ( 1.990144363140586139E-13, -6.980486755139912911E-15, 57.00000000000000000 ) ) ;
#133 = ORIENTED_EDGE ( 'NONE', *, *, #258, .T. ) ;
#134 = DIRECTION ( 'NONE',  ( -3.491481338843133355E-15, 1.224646799147353207E-16, -1.000000000000000000 ) ) ;
#135 = DIRECTION ( 'NONE',  ( 3.491481338843133355E-15, -1.224646799147353207E-16, 1.000000000000000000 ) ) ;
#136 = ADVANCED_FACE ( 'NONE', ( #330 ), #190, .T. ) ;
#137 = EDGE_LOOP ( 'NONE', ( #59, #106 ) ) ;
#138 = EDGE_LOOP ( 'NONE', ( #203, #133, #151, #187 ) ) ;
#139 = DIRECTION ( 'NONE',  ( -3.491481338843133355E-15, 1.224646799147353207E-16, -1.000000000000000000 ) ) ;
#140 = CYLINDRICAL_SURFACE ( 'NONE', #89, 1.999999999999999556 ) ;
#141 = ADVANCED_BREP_SHAPE_REPRESENTATION ( '952013', ( #68, #177, #201 ), #308 ) ;
#142 = FILL_AREA_STYLE_COLOUR ( '', #236 ) ;
#143 = PRODUCT_CONTEXT ( 'NONE', #31, 'mechanical' ) ;
#144 = CIRCLE ( 'NONE', #215, 2.999999999999998224 ) ;
#145 = DIRECTION ( 'NONE',  ( -3.491481338843133355E-15, 1.224646799147353207E-16, -1.000000000000000000 ) ) ;
#146 = SURFACE_STYLE_FILL_AREA ( #274 ) ;
#147 = CARTESIAN_POINT ( 'NONE',  ( 3.142333204958820020E-14, 1.999999999999999112, 9.000000000000000000 ) ) ;
#148 = ADVANCED_FACE ( 'NONE', ( #271 ), #140, .T. ) ;
#149 = ORIENTED_EDGE ( 'NONE', *, *, #11, .F. ) ;
#150 = DIRECTION ( 'NONE',  ( -3.491481338843133355E-15, 1.224646799147347537E-16, -1.000000000000000000 ) ) ;
#151 = ORIENTED_EDGE ( 'NONE', *, *, #173, .F. ) ;
#152 =( NAMED_UNIT ( * ) SI_UNIT ( $, .STERADIAN. ) SOLID_ANGLE_UNIT ( ) );
#153 =( GEOMETRIC_REPRESENTATION_CONTEXT ( 3 ) GLOBAL_UNCERTAINTY_ASSIGNED_CONTEXT ( ( #44 ) ) GLOBAL_UNIT_ASSIGNED_CONTEXT ( ( #304, #18, #166 ) ) REPRESENTATION_CONTEXT ( 'NONE', 'WORKASPACE' ) );
#154 = VERTEX_POINT ( 'NONE', #167 ) ;
#155 = CARTESIAN_POINT ( 'NONE',  ( 1.969195475107527465E-13, -6.907007947191072769E-15, 56.40000000000000568 ) ) ;
#156 = FILL_AREA_STYLE ('',( #183 ) ) ;
#157 = LINE ( 'NONE', #261, #110 ) ;
#158 = STYLED_ITEM ( 'NONE', ( #219 ), #141 ) ;
#159 = DIRECTION ( 'NONE',  ( 0.000000000000000000, -1.000000000000000000, 0.000000000000000000 ) ) ;
#160 = ORIENTED_EDGE ( 'NONE', *, *, #311, .F. ) ;
#161 = DIRECTION ( 'NONE',  ( 3.327098416510788004E-15, 0.3382550599108818390, 0.9410544694355825746 ) ) ;
#162 = CIRCLE ( 'NONE', #64, 2.400000000000006128 ) ;
#163 = PRODUCT_RELATED_PRODUCT_CATEGORY ( 'part', '', ( #98 ) ) ;
#164 = AXIS2_PLACEMENT_3D ( 'NONE', #178, #103, #8 ) ;
#165 = AXIS2_PLACEMENT_3D ( 'NONE', #332, #302, #99 ) ;
#166 =( NAMED_UNIT ( * ) SI_UNIT ( $, .STERADIAN. ) SOLID_ANGLE_UNIT ( ) );
#167 = CARTESIAN_POINT ( 'NONE',  ( 2.000000000000000000, 0.000000000000000000, -6.982962677686266711E-15 ) ) ;
#168 = EDGE_CURVE ( 'NONE', #154, #233, #96, .T. ) ;
#169 = DIRECTION ( 'NONE',  ( 3.491481338843133355E-15, -0.000000000000000000, 1.000000000000000000 ) ) ;
#170 = AXIS2_PLACEMENT_3D ( 'NONE', #79, #150, #343 ) ;
#171 = FACE_OUTER_BOUND ( 'NONE', #137, .T. ) ;
#172 = CARTESIAN_POINT ( 'NONE',  ( 1.979669919124056928E-13, 2.399999999999999467, 57.00000000000000000 ) ) ;
#173 = EDGE_CURVE ( 'NONE', #228, #227, #333, .T. ) ;
#174 = ADVANCED_FACE ( 'NONE', ( #171 ), #335, .F. ) ;
#175 = ORIENTED_EDGE ( 'NONE', *, *, #71, .T. ) ;
#176 =( NAMED_UNIT ( * ) PLANE_ANGLE_UNIT ( ) SI_UNIT ( $, .RADIAN. ) );
#177 = MANIFOLD_SOLID_BREP ( 'Corps-Déplacer/Copier1[2]', #295 ) ;
#178 = CARTESIAN_POINT ( 'NONE',  ( 3.142333204958820020E-14, 0.000000000000000000, 9.000000000000000000 ) ) ;
#179 = DIRECTION ( 'NONE',  ( 0.000000000000000000, 1.000000000000000000, 0.000000000000000000 ) ) ;
#180 = VERTEX_POINT ( 'NONE', #255 ) ;
#181 =( GEOMETRIC_REPRESENTATION_CONTEXT ( 3 ) GLOBAL_UNCERTAINTY_ASSIGNED_CONTEXT ( ( #78 ) ) GLOBAL_UNIT_ASSIGNED_CONTEXT ( ( #43, #273, #206 ) ) REPRESENTATION_CONTEXT ( 'NONE', 'WORKASPACE' ) );
#182 = CARTESIAN_POINT ( 'NONE',  ( -1.999999999999968026, 2.449293598294705921E-16, 9.000000000000007105 ) ) ;
#183 = FILL_AREA_STYLE_COLOUR ( '', #210 ) ;
#184 = AXIS2_PLACEMENT_3D ( 'NONE', #25, #127, #84 ) ;
#185 = VERTEX_POINT ( 'NONE', #230 ) ;
#186 = DIRECTION ( 'NONE',  ( -3.491481338843133355E-15, 1.224646799147353207E-16, -1.000000000000000000 ) ) ;
#187 = ORIENTED_EDGE ( 'NONE', *, *, #26, .F. ) ;
#188 = CARTESIAN_POINT ( 'NONE',  ( 3.142333204958820020E-14, -1.102182119232617714E-15, 9.000000000000000000 ) ) ;
#189 = FACE_OUTER_BOUND ( 'NONE', #65, .T. ) ;
#190 = CONICAL_SURFACE ( 'NONE', #105, 2.000000000000000444, 0.3450620389298190704 ) ;
#191 = SURFACE_SIDE_STYLE ('',( #87 ) ) ;
#192 = DIRECTION ( 'NONE',  ( 0.000000000000000000, 1.000000000000000000, 0.000000000000000000 ) ) ;
#193 = CARTESIAN_POINT ( 'NONE',  ( 3.166826140941767049E-14, 1.999999999999999112, 9.000000000000000000 ) ) ;
#194 = SURFACE_STYLE_FILL_AREA ( #156 ) ;
#195 = DIRECTION ( 'NONE',  ( -2.575717417130363805E-14, -1.000000000000000000, 0.000000000000000000 ) ) ;
#196 = CARTESIAN_POINT ( 'NONE',  ( 0.000000000000000000, 0.000000000000000000, 0.000000000000000000 ) ) ;
#197 = MECHANICAL_DESIGN_GEOMETRIC_PRESENTATION_REPRESENTATION (  '', ( #51 ), #181 ) ;
#198 = VECTOR ( 'NONE', #226, 1000.000000000000000 ) ;
#199 = ADVANCED_FACE ( 'NONE', ( #50 ), #47, .T. ) ;
#200 = CONICAL_SURFACE ( 'NONE', #254, 2.000000000000000444, 0.3450620389298190704 ) ;
#201 = AXIS2_PLACEMENT_3D ( 'NONE', #247, #243, #202 ) ;
#202 = DIRECTION ( 'NONE',  ( 1.000000000000000000, 0.000000000000000000, 0.000000000000000000 ) ) ;
#203 = ORIENTED_EDGE ( 'NONE', *, *, #168, .T. ) ;
#204 = DIRECTION ( 'NONE',  ( 3.491481338843133355E-15, -1.224646799147353207E-16, 1.000000000000000000 ) ) ;
#205 = DIRECTION ( 'NONE',  ( 2.664535259100376328E-14, -1.000000000000000000, 0.000000000000000000 ) ) ;
#206 =( NAMED_UNIT ( * ) SI_UNIT ( $, .STERADIAN. ) SOLID_ANGLE_UNIT ( ) );
#207 = PRESENTATION_STYLE_ASSIGNMENT (( #45 ) ) ;
#208 = CARTESIAN_POINT ( 'NONE',  ( 1.990144363140586139E-13, -6.980486755139912911E-15, 57.00000000000000000 ) ) ;
#209 = EDGE_CURVE ( 'NONE', #336, #185, #3, .T. ) ;
#210 = COLOUR_RGB ( '',1.000000000000000000, 1.000000000000000000, 1.000000000000000000 ) ;
#211 = ORIENTED_EDGE ( 'NONE', *, *, #71, .F. ) ;
#212 = ADVANCED_FACE ( 'NONE', ( #52 ), #224, .T. ) ;
#213 = ORIENTED_EDGE ( 'NONE', *, *, #16, .F. ) ;
#214 = FACE_OUTER_BOUND ( 'NONE', #54, .T. ) ;
#215 = AXIS2_PLACEMENT_3D ( 'NONE', #155, #341, #205 ) ;
#216 = ORIENTED_EDGE ( 'NONE', *, *, #276, .T. ) ;
#217 = ORIENTED_EDGE ( 'NONE', *, *, #61, .F. ) ;
#218 = LINE ( 'NONE', #239, #70 ) ;
#219 = PRESENTATION_STYLE_ASSIGNMENT (( #119 ) ) ;
#220 = CARTESIAN_POINT ( 'NONE',  ( 0.000000000000000000, 0.000000000000000000, 0.000000000000000000 ) ) ;
#221 = PRODUCT_DEFINITION ( 'UNKNOWN', '', #256, #282 ) ;
#222 = DIRECTION ( 'NONE',  ( 1.000000000000000000, 0.000000000000000000, -3.491481338843133355E-15 ) ) ;
#223 = ORIENTED_EDGE ( 'NONE', *, *, #120, .F. ) ;
#224 = CYLINDRICAL_SURFACE ( 'NONE', #41, 2.999999999999998224 ) ;
#225 = CIRCLE ( 'NONE', #66, 1.999999999999999112 ) ;
#226 = DIRECTION ( 'NONE',  ( 3.491481338843133355E-15, -0.000000000000000000, 1.000000000000000000 ) ) ;
#227 = VERTEX_POINT ( 'NONE', #182 ) ;
#228 = VERTEX_POINT ( 'NONE', #29 ) ;
#229 = EDGE_CURVE ( 'NONE', #227, #228, #225, .T. ) ;
#230 = CARTESIAN_POINT ( 'NONE',  ( 1.193956334783364486E-13, -2.999999999999995559, 11.78208541709179613 ) ) ;
#231 = CIRCLE ( 'NONE', #323, 2.999999999999994227 ) ;
#232 = ORIENTED_EDGE ( 'NONE', *, *, #16, .T. ) ;
#233 = VERTEX_POINT ( 'NONE', #312 ) ;
#234 = EDGE_CURVE ( 'NONE', #30, #126, #39, .T. ) ;
#235 = CLOSED_SHELL ( 'NONE', ( #250, #20, #212, #292, #199, #328, #136, #279 ) ) ;
#236 = COLOUR_RGB ( '',1.000000000000000000, 1.000000000000000000, 1.000000000000000000 ) ;
#237 = ORIENTED_EDGE ( 'NONE', *, *, #265, .T. ) ;
#238 = CARTESIAN_POINT ( 'NONE',  ( 1.190282394385922684E-13, 2.999999999999991562, 56.40000000000000568 ) ) ;
#239 = CARTESIAN_POINT ( 'NONE',  ( 1.969195475107527465E-13, 2.999999999999991562, 56.40000000000000568 ) ) ;
#240 = CARTESIAN_POINT ( 'NONE',  ( 1.969195475107527465E-13, -6.907007947191072769E-15, 56.40000000000000568 ) ) ;
#241 =( NAMED_UNIT ( * ) PLANE_ANGLE_UNIT ( ) SI_UNIT ( $, .RADIAN. ) );
#242 = DIRECTION ( 'NONE',  ( 3.491481338843133355E-15, -0.000000000000000000, 1.000000000000000000 ) ) ;
#243 = DIRECTION ( 'NONE',  ( 0.000000000000000000, 0.000000000000000000, 1.000000000000000000 ) ) ;
#244 = APPLICATION_PROTOCOL_DEFINITION ( 'draft international standard', 'automotive_design', 1998, #291 ) ;
#245 = SURFACE_SIDE_STYLE ('',( #146 ) ) ;
#246 = DIRECTION ( 'NONE',  ( -3.491481338843133355E-15, 0.000000000000000000, -1.000000000000000000 ) ) ;
#247 = CARTESIAN_POINT ( 'NONE',  ( 0.000000000000000000, 0.000000000000000000, 0.000000000000000000 ) ) ;
#248 = CIRCLE ( 'NONE', #46, 2.999999999999998224 ) ;
#249 = ORIENTED_EDGE ( 'NONE', *, *, #234, .T. ) ;
#250 = ADVANCED_FACE ( 'NONE', ( #130 ), #122, .T. ) ;
#251 = CARTESIAN_POINT ( 'NONE',  ( 3.628013170801001416E-14, -2.000000000000001776, 9.000000000000000000 ) ) ;
#252 = VERTEX_POINT ( 'NONE', #251 ) ;
#253 = DIRECTION ( 'NONE',  ( -4.275831445896958607E-31, -1.000000000000000000, -1.224646799147353207E-16 ) ) ;
#254 = AXIS2_PLACEMENT_3D ( 'NONE', #290, #293, #159 ) ;
#255 = CARTESIAN_POINT ( 'NONE',  ( 3.658629340779684572E-14, 1.999999999999999112, 9.000000000000000000 ) ) ;
#256 = PRODUCT_DEFINITION_FORMATION_WITH_SPECIFIED_SOURCE ( 'ANY', '', #98, .NOT_KNOWN. ) ;
#257 = DIRECTION ( 'NONE',  ( 4.275831445896958607E-31, 1.000000000000000000, 1.224646799147353454E-16 ) ) ;
#258 = EDGE_CURVE ( 'NONE', #233, #227, #104, .T. ) ;
#259 = ORIENTED_EDGE ( 'NONE', *, *, #270, .T. ) ;
#260 = DIRECTION ( 'NONE',  ( 1.000000000000000000, 0.000000000000000000, -3.469446951953615767E-15 ) ) ;
#261 = CARTESIAN_POINT ( 'NONE',  ( 2.000000000000030642, 0.000000000000000000, 8.999999999999992895 ) ) ;
#262 = COLOUR_RGB ( '',1.000000000000000000, 1.000000000000000000, 1.000000000000000000 ) ;
#263 =( GEOMETRIC_REPRESENTATION_CONTEXT ( 3 ) GLOBAL_UNCERTAINTY_ASSIGNED_CONTEXT ( ( #1 ) ) GLOBAL_UNIT_ASSIGNED_CONTEXT ( ( #82, #176, #152 ) ) REPRESENTATION_CONTEXT ( 'NONE', 'WORKASPACE' ) );
#264 = ORIENTED_EDGE ( 'NONE', *, *, #334, .T. ) ;
#265 = EDGE_CURVE ( 'NONE', #111, #83, #144, .T. ) ;
#266 = SURFACE_STYLE_USAGE ( .BOTH. , #191 ) ;
#267 = DIRECTION ( 'NONE',  ( 0.000000000000000000, 1.000000000000000000, 0.000000000000000000 ) ) ;
#268 = ORIENTED_EDGE ( 'NONE', *, *, #311, .T. ) ;
#269 = FACE_OUTER_BOUND ( 'NONE', #131, .T. ) ;
#270 = EDGE_CURVE ( 'NONE', #30, #83, #23, .T. ) ;
#271 = FACE_OUTER_BOUND ( 'NONE', #138, .T. ) ;
#272 = PRODUCT_DEFINITION_SHAPE ( 'NONE', 'NONE',  #221 ) ;
#273 =( NAMED_UNIT ( * ) PLANE_ANGLE_UNIT ( ) SI_UNIT ( $, .RADIAN. ) );
#274 = FILL_AREA_STYLE ('',( #142 ) ) ;
#275 = AXIS2_PLACEMENT_3D ( 'NONE', #132, #285, #338 ) ;
#276 = EDGE_CURVE ( 'NONE', #185, #336, #231, .T. ) ;
#277 = FACE_OUTER_BOUND ( 'NONE', #305, .T. ) ;
#278 = AXIS2_PLACEMENT_3D ( 'NONE', #10, #113, #192 ) ;
#279 = ADVANCED_FACE ( 'NONE', ( #107 ), #28, .T. ) ;
#280 = ORIENTED_EDGE ( 'NONE', *, *, #26, .T. ) ;
#281 = CARTESIAN_POINT ( 'NONE',  ( 3.142333204958820020E-14, 1.999999999999999112, 9.000000000000000000 ) ) ;
#282 = PRODUCT_DEFINITION_CONTEXT ( 'detailed design', #291, 'design' ) ;
#283 = FACE_OUTER_BOUND ( 'NONE', #314, .T. ) ;
#284 = MECHANICAL_DESIGN_GEOMETRIC_PRESENTATION_REPRESENTATION (  '', ( #339 ), #263 ) ;
#285 = DIRECTION ( 'NONE',  ( 3.491481338843133355E-15, -1.224646799147353207E-16, 1.000000000000000000 ) ) ;
#286 = CARTESIAN_POINT ( 'NONE',  ( 3.142333204958820020E-14, -2.000000000000001776, 9.000000000000000000 ) ) ;
#287 = FILL_AREA_STYLE_COLOUR ( '', #262 ) ;
#288 = AXIS2_PLACEMENT_3D ( 'NONE', #297, #67, #40 ) ;
#289 = DIRECTION ( 'NONE',  ( 3.491481338843133355E-15, -0.000000000000000000, 1.000000000000000000 ) ) ;
#290 = CARTESIAN_POINT ( 'NONE',  ( 3.142333204958820020E-14, -1.102182119232617714E-15, 9.000000000000000000 ) ) ;
#291 = APPLICATION_CONTEXT ( 'automotive_design' ) ;
#292 = ADVANCED_FACE ( 'NONE', ( #283 ), #73, .T. ) ;
#293 = DIRECTION ( 'NONE',  ( 3.491481338843133355E-15, -1.224646799147353207E-16, 1.000000000000000000 ) ) ;
#294 =( LENGTH_UNIT ( ) NAMED_UNIT ( * ) SI_UNIT ( .MILLI., .METRE. ) );
#295 = CLOSED_SHELL ( 'NONE', ( #148, #299, #174, #88 ) ) ;
#296 = VECTOR ( 'NONE', #90, 1000.000000000000000 ) ;
#297 = CARTESIAN_POINT ( 'NONE',  ( -1.068957861474238776E-31, 2.000000000000000000, -3.061616997868381169E-17 ) ) ;
#298 = DIRECTION ( 'NONE',  ( 1.000000000000000000, 0.000000000000000000, -3.469446951953614978E-15 ) ) ;
#299 = ADVANCED_FACE ( 'NONE', ( #277 ), #80, .T. ) ;
#300 = SURFACE_SIDE_STYLE ('',( #194 ) ) ;
#301 = CIRCLE ( 'NONE', #278, 2.000000000000000444 ) ;
#302 = DIRECTION ( 'NONE',  ( 3.491481338843133355E-15, -0.000000000000000000, 1.000000000000000000 ) ) ;
#303 = VECTOR ( 'NONE', #145, 1000.000000000000000 ) ;
#304 =( LENGTH_UNIT ( ) NAMED_UNIT ( * ) SI_UNIT ( .MILLI., .METRE. ) );
#305 = EDGE_LOOP ( 'NONE', ( #7, #232, #280, #72 ) ) ;
#306 = DIRECTION ( 'NONE',  ( -3.491481338843133355E-15, 1.224646799147347537E-16, -1.000000000000000000 ) ) ;
#307 = AXIS2_PLACEMENT_3D ( 'NONE', #196, #57, #37 ) ;
#308 =( GEOMETRIC_REPRESENTATION_CONTEXT ( 3 ) GLOBAL_UNCERTAINTY_ASSIGNED_CONTEXT ( ( #69 ) ) GLOBAL_UNIT_ASSIGNED_CONTEXT ( ( #294, #241, #329 ) ) REPRESENTATION_CONTEXT ( 'NONE', 'WORKASPACE' ) );
#309 = CARTESIAN_POINT ( 'NONE',  ( 1.972869415504969519E-13, -3.000000000000005329, 56.40000000000000568 ) ) ;
#310 = ORIENTED_EDGE ( 'NONE', *, *, #77, .T. ) ;
#311 = EDGE_CURVE ( 'NONE', #180, #336, #63, .T. ) ;
#312 = CARTESIAN_POINT ( 'NONE',  ( -2.000000000000000000, 2.449293598294725643E-16, 6.982962677686266711E-15 ) ) ;
#313 = CIRCLE ( 'NONE', #121, 2.000000000000000444 ) ;
#314 = EDGE_LOOP ( 'NONE', ( #56, #175 ) ) ;
#315 = CARTESIAN_POINT ( 'NONE',  ( 4.113693136643182181E-14, -1.442889319332217595E-15, 11.78208541709179613 ) ) ;
#316 = AXIS2_PLACEMENT_3D ( 'NONE', #281, #49, #60 ) ;
#317 = AXIS2_PLACEMENT_3D ( 'NONE', #124, #306, #179 ) ;
#318 = ORIENTED_EDGE ( 'NONE', *, *, #77, .F. ) ;
#319 = CARTESIAN_POINT ( 'NONE',  ( 3.673940397442045077E-16, -2.999999999999998224, -3.673940397442070222E-16 ) ) ;
#320 = ORIENTED_EDGE ( 'NONE', *, *, #125, .F. ) ;
#321 = CYLINDRICAL_SURFACE ( 'NONE', #9, 2.999999999999998224 ) ;
#322 = LINE ( 'NONE', #286, #74 ) ;
#323 = AXIS2_PLACEMENT_3D ( 'NONE', #315, #134, #2 ) ;
#324 = ORIENTED_EDGE ( 'NONE', *, *, #120, .T. ) ;
#325 = DIRECTION ( 'NONE',  ( -3.491481338843133355E-15, 1.224646799147347537E-16, -1.000000000000000000 ) ) ;
#326 = CARTESIAN_POINT ( 'NONE',  ( 1.982976465481754853E-13, -2.400000000000013234, 57.00000000000000000 ) ) ;
#327 = CARTESIAN_POINT ( 'NONE',  ( 4.113693136643182181E-14, 2.999999999999993339, 11.78208541709179613 ) ) ;
#328 = ADVANCED_FACE ( 'NONE', ( #269 ), #321, .T. ) ;
#329 =( NAMED_UNIT ( * ) SI_UNIT ( $, .STERADIAN. ) SOLID_ANGLE_UNIT ( ) );
#330 = FACE_OUTER_BOUND ( 'NONE', #108, .T. ) ;
#331 = AXIS2_PLACEMENT_3D ( 'NONE', #220, #169, #222 ) ;
#332 = CARTESIAN_POINT ( 'NONE',  ( 3.142333204958820020E-14, 0.000000000000000000, 9.000000000000000000 ) ) ;
#333 = CIRCLE ( 'NONE', #165, 1.999999999999999112 ) ;
#334 = EDGE_CURVE ( 'NONE', #126, #111, #218, .T. ) ;
#335 = PLANE ( 'NONE',  #48 ) ;
#336 = VERTEX_POINT ( 'NONE', #327 ) ;
#337 = ORIENTED_EDGE ( 'NONE', *, *, #61, .T. ) ;
#338 = DIRECTION ( 'NONE',  ( 0.000000000000000000, -1.000000000000000000, 0.000000000000000000 ) ) ;
#339 = STYLED_ITEM ( 'NONE', ( #207 ), #177 ) ;
#340 = CARTESIAN_POINT ( 'NONE',  ( 0.000000000000000000, 0.000000000000000000, 0.000000000000000000 ) ) ;
#341 = DIRECTION ( 'NONE',  ( -3.491481338843133355E-15, 1.224646799147347537E-16, -1.000000000000000000 ) ) ;
#342 = ORIENTED_EDGE ( 'NONE', *, *, #276, .F. ) ;
#343 = DIRECTION ( 'NONE',  ( 0.000000000000000000, 1.000000000000000000, 0.000000000000000000 ) ) ;
ENDSEC;
END-ISO-10303-21;
