ISO-10303-21;
HEADER;
FILE_DESCRIPTION (( 'STEP AP203' ),
    '1' );
FILE_NAME ('951973.step',
    '2021-11-10T06:36:48',
    ( '' ),
    ( '' ),
    'SwSTEP 2.0',
    'SolidWorks 2019',
    '' );
FILE_SCHEMA (( 'CONFIG_CONTROL_DESIGN' ));
ENDSEC;

DATA;
#1 = DIRECTION ( 'NONE',  ( 1.000000000000000000, 0.0000000000000000000, -3.469446951953622866E-15 ) ) ;
#2 = ORIENTED_EDGE ( 'NONE', *, *, #51, .T. ) ;
#3 = APPROVAL_DATE_TIME ( #190, #148 ) ;
#4 = DIRECTION ( 'NONE',  ( 3.491481338843133355E-15, -0.0000000000000000000, 1.000000000000000000 ) ) ;
#5 = CONICAL_SURFACE ( 'NONE', #85, 1.499999999999996225, 0.2617993877991427465 ) ;
#6 = CYLINDRICAL_SURFACE ( 'NONE', #216, 0.02999999999999921133 ) ;
#7 = ORIENTED_EDGE ( 'NONE', *, *, #224, .T. ) ;
#8 = DIRECTION ( 'NONE',  ( 1.000000000000000000, 0.0000000000000000000, -3.491481338843132961E-15 ) ) ;
#9 = DESIGN_CONTEXT ( 'detailed design', #164, 'design' ) ;
#10 = FACE_BOUND ( 'NONE', #202, .T. ) ;
#11 = AXIS2_PLACEMENT_3D ( 'NONE', #104, #4, #159 ) ;
#12 = CALENDAR_DATE ( 2021, 10, 11 ) ;
#13 = PERSON_AND_ORGANIZATION ( #199, #210 ) ;
#14 = AXIS2_PLACEMENT_3D ( 'NONE', #186, #204, #87 ) ;
#15 = APPLICATION_PROTOCOL_DEFINITION ( 'international standard', 'config_control_design', 1994, #164 ) ;
#16 = AXIS2_PLACEMENT_3D ( 'NONE', #42, #79, #229 ) ;
#17 = ORIENTED_EDGE ( 'NONE', *, *, #140, .F. ) ;
#18 = DIRECTION ( 'NONE',  ( 1.000000000000000000, 0.0000000000000000000, -3.313969723276364302E-15 ) ) ;
#19 = DIRECTION ( 'NONE',  ( -3.491481338843133355E-15, 1.224646799147353207E-16, -1.000000000000000000 ) ) ;
#20 = COORDINATED_UNIVERSAL_TIME_OFFSET ( 1, 0, .AHEAD. ) ;
#21 = DIRECTION ( 'NONE',  ( -3.491481338843133355E-15, 1.224646799147353207E-16, -1.000000000000000000 ) ) ;
#22 = PERSON_AND_ORGANIZATION ( #199, #210 ) ;
#23 = FACE_OUTER_BOUND ( 'NONE', #60, .T. ) ;
#24 = EDGE_LOOP ( 'NONE', ( #7 ) ) ;
#25 = PERSON_AND_ORGANIZATION ( #199, #210 ) ;
#26 = DIRECTION ( 'NONE',  ( -4.275831445896958607E-31, -1.000000000000000000, -1.224646799147353207E-16 ) ) ;
#27 = ORIENTED_EDGE ( 'NONE', *, *, #167, .T. ) ;
#28 =( GEOMETRIC_REPRESENTATION_CONTEXT ( 3 ) GLOBAL_UNCERTAINTY_ASSIGNED_CONTEXT ( ( #179 ) ) GLOBAL_UNIT_ASSIGNED_CONTEXT ( ( #36, #128, #123 ) ) REPRESENTATION_CONTEXT ( 'NONE', 'WORKASPACE' ) );
#29 = CC_DESIGN_APPROVAL ( #113, ( #233 ) ) ;
#30 = DIRECTION ( 'NONE',  ( 3.491481338843133355E-15, -1.224646799147353207E-16, 1.000000000000000000 ) ) ;
#31 = PLANE ( 'NONE',  #70 ) ;
#32 = APPROVAL_DATE_TIME ( #163, #75 ) ;
#33 = CC_DESIGN_PERSON_AND_ORGANIZATION_ASSIGNMENT ( #13, #214, ( #108 ) ) ;
#34 = PRODUCT_DEFINITION_FORMATION_WITH_SPECIFIED_SOURCE ( 'ANY', '', #108, .NOT_KNOWN. ) ;
#35 = CC_DESIGN_PERSON_AND_ORGANIZATION_ASSIGNMENT ( #92, #240, ( #193 ) ) ;
#36 =( LENGTH_UNIT ( ) NAMED_UNIT ( * ) SI_UNIT ( .MILLI., .METRE. ) );
#37 = AXIS2_PLACEMENT_3D ( 'NONE', #89, #213, #18 ) ;
#38 = DATE_AND_TIME ( #39, #120 ) ;
#39 = CALENDAR_DATE ( 2021, 10, 11 ) ;
#40 = DIRECTION ( 'NONE',  ( -3.491481338843133355E-15, 1.224646799147353207E-16, -1.000000000000000000 ) ) ;
#41 = APPROVAL_PERSON_ORGANIZATION ( #25, #113, #151 ) ;
#42 = CARTESIAN_POINT ( 'NONE',  ( 1.326762908760390423E-13, -4.653657836759941941E-15, 38.00000000000000000 ) ) ;
#43 = ORIENTED_EDGE ( 'NONE', *, *, #231, .F. ) ;
#44 = SECURITY_CLASSIFICATION_LEVEL ( 'unclassified' ) ;
#45 = DIRECTION ( 'NONE',  ( 1.000000000000000000, 0.0000000000000000000, -3.491481338843133355E-15 ) ) ;
#46 = AXIS2_PLACEMENT_3D ( 'NONE', #80, #40, #76 ) ;
#47 = DIRECTION ( 'NONE',  ( 3.491481338843133355E-15, -0.0000000000000000000, 1.000000000000000000 ) ) ;
#48 = ORIENTED_EDGE ( 'NONE', *, *, #224, .F. ) ;
#49 = CARTESIAN_POINT ( 'NONE',  ( 1.500000000000016431, 0.0000000000000000000, 5.809419682301164123 ) ) ;
#50 = AXIS2_PLACEMENT_3D ( 'NONE', #117, #121, #26 ) ;
#51 = EDGE_CURVE ( 'NONE', #235, #235, #184, .T. ) ;
#52 = ORIENTED_EDGE ( 'NONE', *, *, #140, .T. ) ;
#53 = CC_DESIGN_PERSON_AND_ORGANIZATION_ASSIGNMENT ( #22, #95, ( #233 ) ) ;
#54 = ADVANCED_BREP_SHAPE_REPRESENTATION ( '951973', ( #78, #241, #74 ), #28 ) ;
#55 = APPROVAL_ROLE ( '' ) ;
#56 = PERSON_AND_ORGANIZATION ( #199, #210 ) ;
#57 = PERSON_AND_ORGANIZATION_ROLE ( 'creator' ) ;
#58 = CIRCLE ( 'NONE', #219, 1.499999999999996225 ) ;
#59 = FACE_OUTER_BOUND ( 'NONE', #212, .T. ) ;
#60 = EDGE_LOOP ( 'NONE', ( #27 ) ) ;
#61 = ADVANCED_FACE ( 'NONE', ( #23 ), #182, .T. ) ;
#62 = PERSON_AND_ORGANIZATION_ROLE ( 'design_supplier' ) ;
#63 = PLANE ( 'NONE',  #50 ) ;
#64 = ORIENTED_EDGE ( 'NONE', *, *, #243, .F. ) ;
#65 = FACE_OUTER_BOUND ( 'NONE', #207, .T. ) ;
#66 = DIRECTION ( 'NONE',  ( -4.275831445896958607E-31, -1.000000000000000000, -1.224646799147353207E-16 ) ) ;
#67 = FACE_OUTER_BOUND ( 'NONE', #122, .T. ) ;
#68 = VERTEX_POINT ( 'NONE', #49 ) ;
#69 = VERTEX_POINT ( 'NONE', #203 ) ;
#70 = AXIS2_PLACEMENT_3D ( 'NONE', #143, #21, #99 ) ;
#71 = CARTESIAN_POINT ( 'NONE',  ( 0.02999999999999942296, 0.0000000000000000000, 0.06000000000000005329 ) ) ;
#72 = CALENDAR_DATE ( 2021, 10, 11 ) ;
#73 = ADVANCED_FACE ( 'NONE', ( #205 ), #31, .F. ) ;
#74 = AXIS2_PLACEMENT_3D ( 'NONE', #218, #105, #170 ) ;
#76 = DIRECTION ( 'NONE',  ( 4.275831445896958607E-31, 1.000000000000000000, 1.224646799147353207E-16 ) ) ;
#75 = APPROVAL ( #196, 'UNSPECIFIED' ) ;
#77 = CONICAL_SURFACE ( 'NONE', #16, 1.199999999999998845, 0.7853981633974450594 ) ;
#78 = MANIFOLD_SOLID_BREP ( 'Corps-Déplacer/Copier1[1]', #238 ) ;
#79 = DIRECTION ( 'NONE',  ( -3.491481338843133355E-15, 1.224646799147353207E-16, -1.000000000000000000 ) ) ;
#80 = CARTESIAN_POINT ( 'NONE',  ( 0.0000000000000000000, 0.0000000000000000000, 0.0000000000000000000 ) ) ;
#81 = EDGE_LOOP ( 'NONE', ( #43 ) ) ;
#82 = DIRECTION ( 'NONE',  ( 3.491481338843133355E-15, -0.0000000000000000000, 1.000000000000000000 ) ) ;
#83 = FACE_OUTER_BOUND ( 'NONE', #195, .T. ) ;
#84 = LOCAL_TIME ( 7, 36, 48.00000000000000000, #150 ) ;
#85 = AXIS2_PLACEMENT_3D ( 'NONE', #234, #206, #157 ) ;
#86 = CARTESIAN_POINT ( 'NONE',  ( 1.316288464743861212E-13, 1.499999999999994005, 37.69999999999999574 ) ) ;
#87 = DIRECTION ( 'NONE',  ( 0.0000000000000000000, 1.000000000000000000, 0.0000000000000000000 ) ) ;
#88 = EDGE_LOOP ( 'NONE', ( #48 ) ) ;
#89 = CARTESIAN_POINT ( 'NONE',  ( 2.016812612555844698E-15, 0.0000000000000000000, 0.5776380902050287647 ) ) ;
#90 = CIRCLE ( 'NONE', #14, 1.499999999999998446 ) ;
#91 = CIRCLE ( 'NONE', #126, 0.02999999999999921133 ) ;
#92 = PERSON_AND_ORGANIZATION ( #199, #210 ) ;
#93 = PERSON_AND_ORGANIZATION ( #199, #210 ) ;
#94 = PRODUCT_RELATED_PRODUCT_CATEGORY ( 'detail', '', ( #108 ) ) ;
#95 = PERSON_AND_ORGANIZATION_ROLE ( 'classification_officer' ) ;
#96 = LOCAL_TIME ( 7, 36, 48.00000000000000000, #101 ) ;
#97 = DIRECTION ( 'NONE',  ( 3.491481338843133355E-15, -0.0000000000000000000, 1.000000000000000000 ) ) ;
#98 = APPROVAL_DATE_TIME ( #38, #113 ) ;
#99 = DIRECTION ( 'NONE',  ( 4.275831445896958607E-31, 1.000000000000000000, 1.224646799147353207E-16 ) ) ;
#100 = ORIENTED_EDGE ( 'NONE', *, *, #161, .F. ) ;
#101 = COORDINATED_UNIVERSAL_TIME_OFFSET ( 1, 0, .AHEAD. ) ;
#102 = FACE_OUTER_BOUND ( 'NONE', #155, .T. ) ;
#103 = CARTESIAN_POINT ( 'NONE',  ( 2.094888803305885387E-16, 0.0000000000000000000, 0.06000000000000015737 ) ) ;
#104 = CARTESIAN_POINT ( 'NONE',  ( 0.0000000000000000000, 0.0000000000000000000, 0.0000000000000000000 ) ) ;
#105 = DIRECTION ( 'NONE',  ( 0.0000000000000000000, 0.0000000000000000000, 1.000000000000000000 ) ) ;
#106 = APPROVAL_ROLE ( '' ) ;
#107 = CARTESIAN_POINT ( 'NONE',  ( 0.09814834742186125116, 0.0000000000000000000, 0.5776380902050284316 ) ) ;
#108 = PRODUCT ( '951973', '951973', '', ( #187 ) ) ;
#109 = APPROVAL_PERSON_ORGANIZATION ( #93, #75, #55 ) ;
#110 = VERTEX_POINT ( 'NONE', #86 ) ;
#111 = AXIS2_PLACEMENT_3D ( 'NONE', #103, #82, #185 ) ;
#112 = APPROVAL_STATUS ( 'not_yet_approved' ) ;
#113 = APPROVAL ( #112, 'UNSPECIFIED' ) ;
#114 = CIRCLE ( 'NONE', #111, 0.02999999999999921133 ) ;
#115 = CARTESIAN_POINT ( 'NONE',  ( -6.413803915257457113E-31, 2.249659577954772199E-32, -1.836986451539393076E-16 ) ) ;
#116 = EDGE_LOOP ( 'NONE', ( #158 ) ) ;
#117 = CARTESIAN_POINT ( 'NONE',  ( 2.094888803305882183E-16, 1.124819836996388690E-32, 0.06000000000000006023 ) ) ;
#118 = EDGE_LOOP ( 'NONE', ( #227 ) ) ;
#119 = FACE_OUTER_BOUND ( 'NONE', #24, .T. ) ;
#120 = LOCAL_TIME ( 7, 36, 48.00000000000000000, #20 ) ;
#121 = DIRECTION ( 'NONE',  ( 3.491481338843133355E-15, -1.224646799147353207E-16, 1.000000000000000000 ) ) ;
#122 = EDGE_LOOP ( 'NONE', ( #64 ) ) ;
#123 =( NAMED_UNIT ( * ) SI_UNIT ( $, .STERADIAN. ) SOLID_ANGLE_UNIT ( ) );
#124 = ADVANCED_FACE ( 'NONE', ( #59 ), #232, .F. ) ;
#125 = PERSON_AND_ORGANIZATION ( #199, #210 ) ;
#126 = AXIS2_PLACEMENT_3D ( 'NONE', #154, #226, #178 ) ;
#127 = LOCAL_TIME ( 7, 36, 48.00000000000000000, #228 ) ;
#128 =( NAMED_UNIT ( * ) PLANE_ANGLE_UNIT ( ) SI_UNIT ( $, .RADIAN. ) );
#129 = CC_DESIGN_DATE_AND_TIME_ASSIGNMENT ( #189, #225, ( #233 ) ) ;
#130 = DATE_AND_TIME ( #72, #84 ) ;
#131 = PRODUCT_DEFINITION_SHAPE ( 'NONE', 'NONE',  #193 ) ;
#132 = CIRCLE ( 'NONE', #37, 0.09814834742185923888 ) ;
#133 = CC_DESIGN_APPROVAL ( #148, ( #34 ) ) ;
#134 = CALENDAR_DATE ( 2021, 10, 11 ) ;
#135 = DIRECTION ( 'NONE',  ( 0.0000000000000000000, 1.000000000000000000, 0.0000000000000000000 ) ) ;
#136 = DIRECTION ( 'NONE',  ( 3.491481338843133355E-15, -1.224646799147353207E-16, 1.000000000000000000 ) ) ;
#137 = PERSON_AND_ORGANIZATION ( #199, #210 ) ;
#138 = CYLINDRICAL_SURFACE ( 'NONE', #46, 1.499999999999996225 ) ;
#139 = ORIENTED_EDGE ( 'NONE', *, *, #167, .F. ) ;
#140 = EDGE_CURVE ( 'NONE', #68, #68, #58, .T. ) ;
#141 = FACE_OUTER_BOUND ( 'NONE', #81, .T. ) ;
#142 = CC_DESIGN_APPROVAL ( #75, ( #193 ) ) ;
#143 = CARTESIAN_POINT ( 'NONE',  ( 1.326762908760390423E-13, 8.998558695971069014E-33, 38.00000000000000000 ) ) ;
#144 = ADVANCED_FACE ( 'NONE', ( #191, #230 ), #138, .T. ) ;
#145 = DATE_TIME_ROLE ( 'creation_date' ) ;
#146 = APPLICATION_PROTOCOL_DEFINITION ( 'international standard', 'config_control_design', 1994, #152 ) ;
#147 = TOROIDAL_SURFACE ( 'NONE', #242, 2.029999999999999361, 2.000000000000000000 ) ;
#148 = APPROVAL ( #198, 'UNSPECIFIED' ) ;
#149 = VERTEX_POINT ( 'NONE', #71 ) ;
#150 = COORDINATED_UNIVERSAL_TIME_OFFSET ( 1, 0, .AHEAD. ) ;
#151 = APPROVAL_ROLE ( '' ) ;
#152 = APPLICATION_CONTEXT ( 'configuration controlled 3d designs of mechanical parts and assemblies' ) ;
#153 = CARTESIAN_POINT ( 'NONE',  ( 1.326762908760390423E-13, -4.653657836759941941E-15, 38.00000000000000000 ) ) ;
#154 = CARTESIAN_POINT ( 'NONE',  ( 2.094888803305885387E-16, 0.0000000000000000000, 0.06000000000000015737 ) ) ;
#155 = EDGE_LOOP ( 'NONE', ( #139 ) ) ;
#156 = AXIS2_PLACEMENT_3D ( 'NONE', #174, #30, #66 ) ;
#157 = DIRECTION ( 'NONE',  ( 1.000000000000000000, 0.0000000000000000000, -3.469446951953622866E-15 ) ) ;
#158 = ORIENTED_EDGE ( 'NONE', *, *, #231, .T. ) ;
#159 = DIRECTION ( 'NONE',  ( 1.000000000000000000, 0.0000000000000000000, -3.491481338843132961E-15 ) ) ;
#160 = DIRECTION ( 'NONE',  ( 3.491481338843133355E-15, -0.0000000000000000000, 1.000000000000000000 ) ) ;
#161 = EDGE_CURVE ( 'NONE', #239, #239, #197, .T. ) ;
#162 = FACE_BOUND ( 'NONE', #208, .T. ) ;
#163 = DATE_AND_TIME ( #12, #220 ) ;
#164 = APPLICATION_CONTEXT ( 'configuration controlled 3d designs of mechanical parts and assemblies' ) ;
#165 = CARTESIAN_POINT ( 'NONE',  ( 1.326762908760390423E-13, 1.199999999999994182, 38.00000000000000000 ) ) ;
#166 = CC_DESIGN_PERSON_AND_ORGANIZATION_ASSIGNMENT ( #137, #57, ( #34 ) ) ;
#167 = EDGE_CURVE ( 'NONE', #149, #149, #91, .T. ) ;
#168 = AXIS2_PLACEMENT_3D ( 'NONE', #115, #136, #194 ) ;
#169 = CC_DESIGN_SECURITY_CLASSIFICATION ( #233, ( #34 ) ) ;
#170 = DIRECTION ( 'NONE',  ( 1.000000000000000000, 0.0000000000000000000, 0.0000000000000000000 ) ) ;
#171 = COORDINATED_UNIVERSAL_TIME_OFFSET ( 1, 0, .AHEAD. ) ;
#172 = SHAPE_DEFINITION_REPRESENTATION ( #131, #54 ) ;
#173 = CALENDAR_DATE ( 2021, 10, 11 ) ;
#174 = CARTESIAN_POINT ( 'NONE',  ( 2.094888803305882183E-16, 1.124819836996388690E-32, 0.06000000000000006023 ) ) ;
#176 = ADVANCED_FACE ( 'NONE', ( #10, #83 ), #5, .T. ) ;
#175 = CARTESIAN_POINT ( 'NONE',  ( 2.028348041026253560E-14, 0.0000000000000000000, 5.809419682301169452 ) ) ;
#177 = ORIENTED_EDGE ( 'NONE', *, *, #243, .T. ) ;
#178 = DIRECTION ( 'NONE',  ( 1.000000000000000000, 0.0000000000000000000, -3.388131789017290498E-15 ) ) ;
#179 = UNCERTAINTY_MEASURE_WITH_UNIT (LENGTH_MEASURE( 1.000000000000000082E-05 ), #36, 'distance_accuracy_value', 'NONE');
#180 = CARTESIAN_POINT ( 'NONE',  ( 2.094888803305885387E-16, 0.0000000000000000000, 0.06000000000000015737 ) ) ;
#181 = ADVANCED_FACE ( 'NONE', ( #141, #162 ), #77, .T. ) ;
#182 = PLANE ( 'NONE',  #156 ) ;
#183 = CLOSED_SHELL ( 'NONE', ( #61, #200, #124 ) ) ;
#184 = CIRCLE ( 'NONE', #237, 1.199999999999998845 ) ;
#185 = DIRECTION ( 'NONE',  ( 1.000000000000000000, 0.0000000000000000000, -3.388131789017290498E-15 ) ) ;
#186 = CARTESIAN_POINT ( 'NONE',  ( 1.316288464743861212E-13, -4.616918432785521081E-15, 37.69999999999999574 ) ) ;
#187 = MECHANICAL_CONTEXT ( 'NONE', #152, 'mechanical' ) ;
#188 = ADVANCED_FACE ( 'NONE', ( #211 ), #63, .F. ) ;
#189 = DATE_AND_TIME ( #134, #127 ) ;
#190 = DATE_AND_TIME ( #173, #96 ) ;
#191 = FACE_OUTER_BOUND ( 'NONE', #116, .T. ) ;
#192 = EDGE_LOOP ( 'NONE', ( #52 ) ) ;
#193 = PRODUCT_DEFINITION ( 'UNKNOWN', '', #34, #9 ) ;
#194 = DIRECTION ( 'NONE',  ( -4.275831445896958607E-31, -1.000000000000000000, -1.224646799147353207E-16 ) ) ;
#195 = EDGE_LOOP ( 'NONE', ( #17 ) ) ;
#196 = APPROVAL_STATUS ( 'not_yet_approved' ) ;
#197 = CIRCLE ( 'NONE', #11, 0.02999999999999921133 ) ;
#198 = APPROVAL_STATUS ( 'not_yet_approved' ) ;
#199 = PERSON ( 'UNSPECIFIED', 'UNSPECIFIED', 'UNSPECIFIED', ('UNSPECIFIED'), ('UNSPECIFIED'), ('UNSPECIFIED') ) ;
#200 = ADVANCED_FACE ( 'NONE', ( #65, #102 ), #6, .T. ) ;
#201 = CC_DESIGN_DATE_AND_TIME_ASSIGNMENT ( #130, #145, ( #193 ) ) ;
#202 = EDGE_LOOP ( 'NONE', ( #177 ) ) ;
#203 = CARTESIAN_POINT ( 'NONE',  ( 0.02999999999999942296, 0.0000000000000000000, 0.06000000000000005329 ) ) ;
#204 = DIRECTION ( 'NONE',  ( -3.491481338843133355E-15, 1.224646799147353207E-16, -1.000000000000000000 ) ) ;
#205 = FACE_OUTER_BOUND ( 'NONE', #118, .T. ) ;
#206 = DIRECTION ( 'NONE',  ( 3.491481338843133355E-15, -0.0000000000000000000, 1.000000000000000000 ) ) ;
#207 = EDGE_LOOP ( 'NONE', ( #223 ) ) ;
#208 = EDGE_LOOP ( 'NONE', ( #2 ) ) ;
#209 = CARTESIAN_POINT ( 'NONE',  ( -1.786038389295302186E-30, 0.0000000000000000000, -5.115417256925931626E-16 ) ) ;
#210 = ORGANIZATION ( 'UNSPECIFIED', 'UNSPECIFIED', '' ) ;
#211 = FACE_OUTER_BOUND ( 'NONE', #88, .T. ) ;
#212 = EDGE_LOOP ( 'NONE', ( #100 ) ) ;
#213 = DIRECTION ( 'NONE',  ( 3.491481338843133355E-15, -0.0000000000000000000, 1.000000000000000000 ) ) ;
#214 = PERSON_AND_ORGANIZATION_ROLE ( 'design_owner' ) ;
#215 = ADVANCED_FACE ( 'NONE', ( #119, #67 ), #147, .F. ) ;
#216 = AXIS2_PLACEMENT_3D ( 'NONE', #209, #47, #45 ) ;
#217 = APPROVAL_PERSON_ORGANIZATION ( #125, #148, #106 ) ;
#218 = CARTESIAN_POINT ( 'NONE',  ( 0.0000000000000000000, 0.0000000000000000000, 0.0000000000000000000 ) ) ;
#219 = AXIS2_PLACEMENT_3D ( 'NONE', #175, #97, #1 ) ;
#220 = LOCAL_TIME ( 7, 36, 48.00000000000000000, #171 ) ;
#221 = VERTEX_POINT ( 'NONE', #107 ) ;
#222 = CARTESIAN_POINT ( 'NONE',  ( 0.02999999999999921133, 0.0000000000000000000, -1.047444401652912372E-16 ) ) ;
#223 = ORIENTED_EDGE ( 'NONE', *, *, #161, .T. ) ;
#224 = EDGE_CURVE ( 'NONE', #69, #69, #114, .T. ) ;
#225 = DATE_TIME_ROLE ( 'classification_date' ) ;
#226 = DIRECTION ( 'NONE',  ( 3.491481338843133355E-15, -0.0000000000000000000, 1.000000000000000000 ) ) ;
#227 = ORIENTED_EDGE ( 'NONE', *, *, #51, .F. ) ;
#228 = COORDINATED_UNIVERSAL_TIME_OFFSET ( 1, 0, .AHEAD. ) ;
#229 = DIRECTION ( 'NONE',  ( 0.0000000000000000000, 1.000000000000000000, 0.0000000000000000000 ) ) ;
#230 = FACE_OUTER_BOUND ( 'NONE', #192, .T. ) ;
#231 = EDGE_CURVE ( 'NONE', #110, #110, #90, .T. ) ;
#232 = PLANE ( 'NONE',  #168 ) ;
#233 = SECURITY_CLASSIFICATION ( '', '', #44 ) ;
#234 = CARTESIAN_POINT ( 'NONE',  ( 2.028348041026253560E-14, 0.0000000000000000000, 5.809419682301169452 ) ) ;
#235 = VERTEX_POINT ( 'NONE', #165 ) ;
#236 = CC_DESIGN_PERSON_AND_ORGANIZATION_ASSIGNMENT ( #56, #62, ( #34 ) ) ;
#237 = AXIS2_PLACEMENT_3D ( 'NONE', #153, #19, #135 ) ;
#238 = CLOSED_SHELL ( 'NONE', ( #144, #181, #73, #215, #176, #188 ) ) ;
#239 = VERTEX_POINT ( 'NONE', #222 ) ;
#240 = PERSON_AND_ORGANIZATION_ROLE ( 'creator' ) ;
#241 = MANIFOLD_SOLID_BREP ( 'Corps-Déplacer/Copier1[2]', #183 ) ;
#242 = AXIS2_PLACEMENT_3D ( 'NONE', #180, #160, #8 ) ;
#243 = EDGE_CURVE ( 'NONE', #221, #221, #132, .T. ) ;
ENDSEC;
END-ISO-10303-21;
