ISO-10303-21;
HEADER;
FILE_DESCRIPTION (( 'STEP AP203' ),
    '1' );
FILE_NAME ('951944.step',
    '2021-11-30T06:45:05',
    ( '' ),
    ( '' ),
    'SwSTEP 2.0',
    'SolidWorks 2019',
    '' );
FILE_SCHEMA (( 'CONFIG_CONTROL_DESIGN' ));
ENDSEC;

DATA;
#1 = DIRECTION ( 'NONE',  ( -3.491481338843133355E-15, 1.224646799147353207E-16, -1.000000000000000000 ) ) ;
#2 = ORIENTED_EDGE ( 'NONE', *, *, #198, .F. ) ;
#3 = FACE_OUTER_BOUND ( 'NONE', #217, .T. ) ;
#4 = CC_DESIGN_PERSON_AND_ORGANIZATION_ASSIGNMENT ( #131, #85, ( #179 ) ) ;
#5 = DATE_TIME_ROLE ( 'classification_date' ) ;
#6 = EDGE_LOOP ( 'NONE', ( #136 ) ) ;
#7 = AXIS2_PLACEMENT_3D ( 'NONE', #297, #175, #82 ) ;
#8 = DATE_AND_TIME ( #147, #168 ) ;
#9 = COORDINATED_UNIVERSAL_TIME_OFFSET ( 1, 0, .AHEAD. ) ;
#10 = APPROVAL_DATE_TIME ( #51, #152 ) ;
#11 = EDGE_LOOP ( 'NONE', ( #213 ) ) ;
#12 = ORIENTED_EDGE ( 'NONE', *, *, #162, .F. ) ;
#13 = CARTESIAN_POINT ( 'NONE',  ( 7.104220552055901835E-14, -2.491825135286219831E-15, 20.34729635533384595 ) ) ;
#14 = DIRECTION ( 'NONE',  ( 3.491481338843133355E-15, -1.224646799147353207E-16, 1.000000000000000000 ) ) ;
#15 = CC_DESIGN_SECURITY_CLASSIFICATION ( #303, ( #215 ) ) ;
#16 = CC_DESIGN_PERSON_AND_ORGANIZATION_ASSIGNMENT ( #192, #45, ( #91 ) ) ;
#17 = FACE_OUTER_BOUND ( 'NONE', #119, .T. ) ;
#18 = DIRECTION ( 'NONE',  ( -3.491481338843133355E-15, 1.224646799147353207E-16, -1.000000000000000000 ) ) ;
#19 = DIRECTION ( 'NONE',  ( 0.0000000000000000000, 1.000000000000000000, 0.0000000000000000000 ) ) ;
#20 = CARTESIAN_POINT ( 'NONE',  ( 1.745740669421566678E-13, -6.123233995736766085E-15, 50.00000000000000000 ) ) ;
#21 = EDGE_CURVE ( 'NONE', #188, #188, #177, .T. ) ;
#22 = LOCAL_TIME ( 7, 45, 5.000000000000000000, #216 ) ;
#23 = EDGE_CURVE ( 'NONE', #287, #287, #43, .T. ) ;
#24 = CARTESIAN_POINT ( 'NONE',  ( 3.584309283006850656E-14, 1.004999999999997451, 10.26586979896182150 ) ) ;
#25 = CIRCLE ( 'NONE', #241, 1.158499999999994978 ) ;
#26 = ORIENTED_EDGE ( 'NONE', *, *, #130, .T. ) ;
#27 = ADVANCED_FACE ( 'NONE', ( #116, #199 ), #271, .T. ) ;
#28 = APPROVAL_STATUS ( 'not_yet_approved' ) ;
#29 = EDGE_LOOP ( 'NONE', ( #237 ) ) ;
#30 = AXIS2_PLACEMENT_3D ( 'NONE', #60, #18, #268 ) ;
#31 = CARTESIAN_POINT ( 'NONE',  ( 3.491481338843133355E-14, 8.687358541068754005E-33, 10.00000000000000000 ) ) ;
#32 = PERSON_AND_ORGANIZATION ( #156, #155 ) ;
#33 = ORIENTED_EDGE ( 'NONE', *, *, #23, .F. ) ;
#34 = PLANE ( 'NONE',  #249 ) ;
#35 = CARTESIAN_POINT ( 'NONE',  ( 3.491481338843133355E-14, -1.224646799147353256E-15, 10.00000000000000000 ) ) ;
#36 = APPROVAL_PERSON_ORGANIZATION ( #120, #152, #233 ) ;
#37 = CARTESIAN_POINT ( 'NONE',  ( 1.735266225405037467E-13, -6.086494591762345225E-15, 49.70000000000000284 ) ) ;
#38 = DIRECTION ( 'NONE',  ( -3.491481338843133355E-15, 1.224646799147353207E-16, -1.000000000000000000 ) ) ;
#39 = CARTESIAN_POINT ( 'NONE',  ( 6.982962677686266711E-14, 1.004999999999997229, 20.00000000000000000 ) ) ;
#40 = APPROVAL ( #148, 'UNSPECIFIED' ) ;
#41 = APPLICATION_PROTOCOL_DEFINITION ( 'international standard', 'config_control_design', 1994, #302 ) ;
#42 = EDGE_LOOP ( 'NONE', ( #26 ) ) ;
#43 = CIRCLE ( 'NONE', #86, 1.200000000000001732 ) ;
#44 = EDGE_CURVE ( 'NONE', #251, #251, #248, .T. ) ;
#45 = PERSON_AND_ORGANIZATION_ROLE ( 'creator' ) ;
#46 = ORIENTED_EDGE ( 'NONE', *, *, #198, .T. ) ;
#47 = DATE_AND_TIME ( #70, #22 ) ;
#48 = EDGE_LOOP ( 'NONE', ( #230 ) ) ;
#49 = DIRECTION ( 'NONE',  ( 4.275831445896958607E-31, 1.000000000000000000, 1.224646799147353207E-16 ) ) ;
#50 = APPROVAL ( #74, 'UNSPECIFIED' ) ;
#51 = DATE_AND_TIME ( #186, #146 ) ;
#52 = PLANE ( 'NONE',  #108 ) ;
#53 = APPROVAL_ROLE ( '' ) ;
#54 = CIRCLE ( 'NONE', #285, 1.035384493975579634 ) ;
#55 = DIRECTION ( 'NONE',  ( -3.491481338843133355E-15, 1.224646799147353207E-16, -1.000000000000000000 ) ) ;
#56 = PERSON_AND_ORGANIZATION ( #156, #155 ) ;
#57 = DIRECTION ( 'NONE',  ( -3.491481338843133355E-15, 1.224646799147353207E-16, -1.000000000000000000 ) ) ;
#58 = ADVANCED_FACE ( 'NONE', ( #294, #223 ), #229, .F. ) ;
#59 = DIRECTION ( 'NONE',  ( 0.0000000000000000000, 1.000000000000000000, 0.0000000000000000000 ) ) ;
#60 = CARTESIAN_POINT ( 'NONE',  ( 0.0000000000000000000, 0.0000000000000000000, 0.0000000000000000000 ) ) ;
#61 = CARTESIAN_POINT ( 'NONE',  ( 3.491481338843133355E-14, 1.158499999999993646, 10.00000000000000000 ) ) ;
#62 = CLOSED_SHELL ( 'NONE', ( #107, #208, #151, #222 ) ) ;
#63 = VERTEX_POINT ( 'NONE', #39 ) ;
#64 = CIRCLE ( 'NONE', #142, 1.004999999999998783 ) ;
#65 = PLANE ( 'NONE',  #252 ) ;
#66 = EDGE_CURVE ( 'NONE', #202, #202, #64, .T. ) ;
#67 = PERSON_AND_ORGANIZATION ( #156, #155 ) ;
#68 = DIRECTION ( 'NONE',  ( 4.987302402383892479E-31, 1.000000000000000000, 1.403800827560004854E-16 ) ) ;
#69 = DATE_TIME_ROLE ( 'creation_date' ) ;
#70 = CALENDAR_DATE ( 2021, 30, 11 ) ;
#71 = EDGE_LOOP ( 'NONE', ( #262 ) ) ;
#72 = COORDINATED_UNIVERSAL_TIME_OFFSET ( 1, 0, .AHEAD. ) ;
#73 = DIRECTION ( 'NONE',  ( 0.0000000000000000000, 1.000000000000000000, 0.0000000000000000000 ) ) ;
#74 = APPROVAL_STATUS ( 'not_yet_approved' ) ;
#75 = AXIS2_PLACEMENT_3D ( 'NONE', #266, #218, #99 ) ;
#76 = DIRECTION ( 'NONE',  ( 0.0000000000000000000, 1.000000000000000000, 0.0000000000000000000 ) ) ;
#77 = ADVANCED_FACE ( 'NONE', ( #106, #126 ), #201, .T. ) ;
#78 = DIRECTION ( 'NONE',  ( -3.491481338843133355E-15, 1.224646799147353207E-16, -1.000000000000000000 ) ) ;
#79 = DIRECTION ( 'NONE',  ( 4.275831445896958607E-31, 1.000000000000000000, 1.224646799147353207E-16 ) ) ;
#80 = DIRECTION ( 'NONE',  ( 0.0000000000000000000, -1.000000000000000000, 0.0000000000000000000 ) ) ;
#81 = VERTEX_POINT ( 'NONE', #299 ) ;
#82 = DIRECTION ( 'NONE',  ( -4.275831445896958607E-31, -1.000000000000000000, -1.224646799147353207E-16 ) ) ;
#83 = AXIS2_PLACEMENT_3D ( 'NONE', #245, #296, #79 ) ;
#84 = AXIS2_PLACEMENT_3D ( 'NONE', #289, #55, #73 ) ;
#85 = PERSON_AND_ORGANIZATION_ROLE ( 'design_owner' ) ;
#86 = AXIS2_PLACEMENT_3D ( 'NONE', #234, #209, #92 ) ;
#87 = DIRECTION ( 'NONE',  ( -3.491481338843133355E-15, 1.224646799147353207E-16, -1.000000000000000000 ) ) ;
#88 = CALENDAR_DATE ( 2021, 30, 11 ) ;
#89 = EDGE_LOOP ( 'NONE', ( #33 ) ) ;
#90 = CARTESIAN_POINT ( 'NONE',  ( 1.745740669421566678E-13, 8.998558695971067645E-33, 50.00000000000000000 ) ) ;
#91 = PRODUCT_DEFINITION ( 'UNKNOWN', '', #215, #110 ) ;
#92 = DIRECTION ( 'NONE',  ( 0.0000000000000000000, 1.000000000000000000, 0.0000000000000000000 ) ) ;
#93 = DIRECTION ( 'NONE',  ( -3.491481338843133355E-15, 1.224646799147353207E-16, -1.000000000000000000 ) ) ;
#94 = CYLINDRICAL_SURFACE ( 'NONE', #111, 1.158499999999994312 ) ;
#95 =( GEOMETRIC_REPRESENTATION_CONTEXT ( 3 ) GLOBAL_UNCERTAINTY_ASSIGNED_CONTEXT ( ( #279 ) ) GLOBAL_UNIT_ASSIGNED_CONTEXT ( ( #274, #129, #180 ) ) REPRESENTATION_CONTEXT ( 'NONE', 'WORKASPACE' ) );
#96 = EDGE_LOOP ( 'NONE', ( #193 ) ) ;
#97 = SECURITY_CLASSIFICATION_LEVEL ( 'unclassified' ) ;
#98 = EDGE_LOOP ( 'NONE', ( #258 ) ) ;
#99 = DIRECTION ( 'NONE',  ( -4.987302402383892479E-31, -1.000000000000000000, -1.403800827560004854E-16 ) ) ;
#100 = CARTESIAN_POINT ( 'NONE',  ( 3.491481338843133355E-14, 8.687358541068754005E-33, 10.00000000000000000 ) ) ;
#101 = ADVANCED_FACE ( 'NONE', ( #105, #247 ), #236, .T. ) ;
#102 = CC_DESIGN_PERSON_AND_ORGANIZATION_ASSIGNMENT ( #32, #212, ( #303 ) ) ;
#103 = CARTESIAN_POINT ( 'NONE',  ( 0.0000000000000000000, 0.0000000000000000000, 0.0000000000000000000 ) ) ;
#104 = AXIS2_PLACEMENT_3D ( 'NONE', #194, #57, #263 ) ;
#105 = FACE_BOUND ( 'NONE', #11, .T. ) ;
#106 = FACE_OUTER_BOUND ( 'NONE', #254, .T. ) ;
#107 = ADVANCED_FACE ( 'NONE', ( #172 ), #267, .F. ) ;
#108 = AXIS2_PLACEMENT_3D ( 'NONE', #100, #14, #197 ) ;
#109 = MECHANICAL_CONTEXT ( 'NONE', #302, 'mechanical' ) ;
#110 = DESIGN_CONTEXT ( 'detailed design', #228, 'design' ) ;
#111 = AXIS2_PLACEMENT_3D ( 'NONE', #190, #78, #220 ) ;
#112 = DIRECTION ( 'NONE',  ( 0.0000000000000000000, 0.0000000000000000000, 1.000000000000000000 ) ) ;
#113 = ORIENTED_EDGE ( 'NONE', *, *, #66, .F. ) ;
#114 = CARTESIAN_POINT ( 'NONE',  ( 6.982962677686266711E-14, -2.449293598294706513E-15, 20.00000000000000000 ) ) ;
#115 = PERSON_AND_ORGANIZATION_ROLE ( 'design_supplier' ) ;
#116 = FACE_OUTER_BOUND ( 'NONE', #96, .T. ) ;
#117 = EDGE_LOOP ( 'NONE', ( #143 ) ) ;
#118 = DATE_AND_TIME ( #257, #171 ) ;
#119 = EDGE_LOOP ( 'NONE', ( #283 ) ) ;
#120 = PERSON_AND_ORGANIZATION ( #156, #155 ) ;
#121 = ADVANCED_FACE ( 'NONE', ( #17, #173 ), #214, .T. ) ;
#122 = AXIS2_PLACEMENT_3D ( 'NONE', #20, #272, #301 ) ;
#123 = AXIS2_PLACEMENT_3D ( 'NONE', #134, #112, #205 ) ;
#124 = DIRECTION ( 'NONE',  ( 0.0000000000000000000, 1.000000000000000000, 0.0000000000000000000 ) ) ;
#125 = DIRECTION ( 'NONE',  ( 0.0000000000000000000, 1.000000000000000000, 0.0000000000000000000 ) ) ;
#126 = FACE_OUTER_BOUND ( 'NONE', #187, .T. ) ;
#127 = CARTESIAN_POINT ( 'NONE',  ( 3.584309283006850656E-14, -1.257206458976207460E-15, 10.26586979896182150 ) ) ;
#128 = APPROVAL_PERSON_ORGANIZATION ( #280, #40, #225 ) ;
#129 =( NAMED_UNIT ( * ) PLANE_ANGLE_UNIT ( ) SI_UNIT ( $, .RADIAN. ) );
#130 = EDGE_CURVE ( 'NONE', #81, #81, #291, .T. ) ;
#131 = PERSON_AND_ORGANIZATION ( #156, #155 ) ;
#132 = APPLICATION_PROTOCOL_DEFINITION ( 'international standard', 'config_control_design', 1994, #228 ) ;
#133 = DIRECTION ( 'NONE',  ( 0.0000000000000000000, 1.000000000000000000, 0.0000000000000000000 ) ) ;
#134 = CARTESIAN_POINT ( 'NONE',  ( 0.0000000000000000000, 0.0000000000000000000, 0.0000000000000000000 ) ) ;
#135 = APPROVAL_PERSON_ORGANIZATION ( #67, #50, #53 ) ;
#136 = ORIENTED_EDGE ( 'NONE', *, *, #276, .F. ) ;
#137 = FACE_OUTER_BOUND ( 'NONE', #89, .T. ) ;
#138 = DIRECTION ( 'NONE',  ( 4.275831445896958607E-31, 1.000000000000000000, 1.224646799147353454E-16 ) ) ;
#139 = SHAPE_DEFINITION_REPRESENTATION ( #150, #269 ) ;
#140 = ORIENTED_EDGE ( 'NONE', *, *, #21, .F. ) ;
#141 = FACE_BOUND ( 'NONE', #98, .T. ) ;
#142 = AXIS2_PLACEMENT_3D ( 'NONE', #127, #174, #59 ) ;
#143 = ORIENTED_EDGE ( 'NONE', *, *, #44, .T. ) ;
#144 = DIRECTION ( 'NONE',  ( -4.275831445896958607E-31, -1.000000000000000000, -1.224646799147353207E-16 ) ) ;
#145 = DIRECTION ( 'NONE',  ( -3.491481338843133355E-15, 1.224646799147353207E-16, -1.000000000000000000 ) ) ;
#146 = LOCAL_TIME ( 7, 45, 5.000000000000000000, #261 ) ;
#147 = CALENDAR_DATE ( 2021, 30, 11 ) ;
#148 = APPROVAL_STATUS ( 'not_yet_approved' ) ;
#149 = DIRECTION ( 'NONE',  ( 3.491481338843133355E-15, -1.224646799147353207E-16, 1.000000000000000000 ) ) ;
#150 = PRODUCT_DEFINITION_SHAPE ( 'NONE', 'NONE',  #91 ) ;
#151 = ADVANCED_FACE ( 'NONE', ( #3, #160 ), #94, .T. ) ;
#152 = APPROVAL ( #28, 'UNSPECIFIED' ) ;
#153 = CARTESIAN_POINT ( 'NONE',  ( 1.745740669421566678E-13, 1.199999999999995515, 50.00000000000000000 ) ) ;
#154 = CIRCLE ( 'NONE', #104, 1.158499999999994978 ) ;
#155 = ORGANIZATION ( 'UNSPECIFIED', 'UNSPECIFIED', '' ) ;
#156 = PERSON ( 'UNSPECIFIED', 'UNSPECIFIED', 'UNSPECIFIED', ('UNSPECIFIED'), ('UNSPECIFIED'), ('UNSPECIFIED') ) ;
#157 = ORIENTED_EDGE ( 'NONE', *, *, #162, .T. ) ;
#158 = CARTESIAN_POINT ( 'NONE',  ( 8.728703347107829444E-16, -3.061616997868381785E-17, 0.2499999999999998890 ) ) ;
#159 = COORDINATED_UNIVERSAL_TIME_OFFSET ( 1, 0, .AHEAD. ) ;
#160 = FACE_OUTER_BOUND ( 'NONE', #235, .T. ) ;
#161 = CC_DESIGN_APPROVAL ( #152, ( #215 ) ) ;
#162 = EDGE_CURVE ( 'NONE', #270, #270, #154, .T. ) ;
#163 = EDGE_LOOP ( 'NONE', ( #140 ) ) ;
#164 = CARTESIAN_POINT ( 'NONE',  ( -8.552847072295026068E-47, 1.014162432702589323, 0.0000000000000000000 ) ) ;
#165 = EDGE_LOOP ( 'NONE', ( #184 ) ) ;
#166 = PERSON_AND_ORGANIZATION ( #156, #155 ) ;
#167 = AXIS2_PLACEMENT_3D ( 'NONE', #37, #226, #19 ) ;
#168 = LOCAL_TIME ( 7, 45, 5.000000000000000000, #9 ) ;
#169 = FACE_OUTER_BOUND ( 'NONE', #288, .T. ) ;
#170 = AXIS2_PLACEMENT_3D ( 'NONE', #158, #210, #68 ) ;
#171 = LOCAL_TIME ( 7, 45, 5.000000000000000000, #159 ) ;
#172 = FACE_OUTER_BOUND ( 'NONE', #48, .T. ) ;
#173 = FACE_BOUND ( 'NONE', #29, .T. ) ;
#174 = DIRECTION ( 'NONE',  ( -3.491481338843133355E-15, 1.224646799147353207E-16, -1.000000000000000000 ) ) ;
#175 = DIRECTION ( 'NONE',  ( 3.491481338843133355E-15, -1.224646799147353207E-16, 1.000000000000000000 ) ) ;
#176 = CARTESIAN_POINT ( 'NONE',  ( 7.104220552055901835E-14, 1.035384493975577413, 20.34729635533384595 ) ) ;
#177 = CIRCLE ( 'NONE', #200, 1.014162432702589323 ) ;
#178 = CARTESIAN_POINT ( 'NONE',  ( 3.491481338843133355E-14, 1.158499999999993646, 10.00000000000000000 ) ) ;
#179 = PRODUCT ( '951944', '951944', '', ( #109 ) ) ;
#180 =( NAMED_UNIT ( * ) SI_UNIT ( $, .STERADIAN. ) SOLID_ANGLE_UNIT ( ) );
#181 = AXIS2_PLACEMENT_3D ( 'NONE', #203, #149, #80 ) ;
#182 = CIRCLE ( 'NONE', #292, 1.004999999999999671 ) ;
#183 = MANIFOLD_SOLID_BREP ( 'Corps-Déplacer/Copier1[2]', #62 ) ;
#184 = ORIENTED_EDGE ( 'NONE', *, *, #189, .T. ) ;
#185 = MANIFOLD_SOLID_BREP ( 'Corps-Déplacer/Copier1[1]', #231 ) ;
#186 = CALENDAR_DATE ( 2021, 30, 11 ) ;
#187 = EDGE_LOOP ( 'NONE', ( #219 ) ) ;
#188 = VERTEX_POINT ( 'NONE', #164 ) ;
#189 = EDGE_CURVE ( 'NONE', #275, #275, #277, .T. ) ;
#190 = CARTESIAN_POINT ( 'NONE',  ( 0.0000000000000000000, 0.0000000000000000000, 0.0000000000000000000 ) ) ;
#191 = DIRECTION ( 'NONE',  ( 3.491481338843133355E-15, -1.224646799147353207E-16, 1.000000000000000000 ) ) ;
#192 = PERSON_AND_ORGANIZATION ( #156, #155 ) ;
#193 = ORIENTED_EDGE ( 'NONE', *, *, #189, .F. ) ;
#194 = CARTESIAN_POINT ( 'NONE',  ( 3.491481338843133355E-14, -1.224646799147353256E-15, 10.00000000000000000 ) ) ;
#195 = CARTESIAN_POINT ( 'NONE',  ( 8.024213829604037643E-14, -2.814515338453599398E-15, 22.98226182776270576 ) ) ;
#196 = FACE_OUTER_BOUND ( 'NONE', #42, .T. ) ;
#197 = DIRECTION ( 'NONE',  ( -4.275831445896958607E-31, -1.000000000000000000, -1.224646799147353207E-16 ) ) ;
#198 = EDGE_CURVE ( 'NONE', #224, #224, #25, .T. ) ;
#199 = FACE_OUTER_BOUND ( 'NONE', #117, .T. ) ;
#200 = AXIS2_PLACEMENT_3D ( 'NONE', #281, #1, #138 ) ;
#201 = CYLINDRICAL_SURFACE ( 'NONE', #30, 1.004999999999999227 ) ;
#202 = VERTEX_POINT ( 'NONE', #24 ) ;
#203 = CARTESIAN_POINT ( 'NONE',  ( 8.024213829604037643E-14, -2.814515338453599398E-15, 22.98226182776270576 ) ) ;
#204 = PRODUCT_RELATED_PRODUCT_CATEGORY ( 'detail', '', ( #179 ) ) ;
#205 = DIRECTION ( 'NONE',  ( 1.000000000000000000, 0.0000000000000000000, 0.0000000000000000000 ) ) ;
#206 = CONICAL_SURFACE ( 'NONE', #75, 1.158499999999993646, 0.5235987755982927094 ) ;
#207 = EDGE_LOOP ( 'NONE', ( #12 ) ) ;
#208 = ADVANCED_FACE ( 'NONE', ( #240, #196 ), #206, .T. ) ;
#209 = DIRECTION ( 'NONE',  ( -3.491481338843133355E-15, 1.224646799147353207E-16, -1.000000000000000000 ) ) ;
#210 = DIRECTION ( 'NONE',  ( -3.491481338843133355E-15, 1.224646799147353207E-16, -1.000000000000000000 ) ) ;
#211 = CC_DESIGN_DATE_AND_TIME_ASSIGNMENT ( #259, #69, ( #91 ) ) ;
#212 = PERSON_AND_ORGANIZATION_ROLE ( 'classification_officer' ) ;
#213 = ORIENTED_EDGE ( 'NONE', *, *, #265, .F. ) ;
#214 = CONICAL_SURFACE ( 'NONE', #122, 1.200000000000001732, 0.7853981633974453924 ) ;
#215 = PRODUCT_DEFINITION_FORMATION_WITH_SPECIFIED_SOURCE ( 'ANY', '', #179, .NOT_KNOWN. ) ;
#216 = COORDINATED_UNIVERSAL_TIME_OFFSET ( 1, 0, .AHEAD. ) ;
#217 = EDGE_LOOP ( 'NONE', ( #253 ) ) ;
#218 = DIRECTION ( 'NONE',  ( 3.491481338843133355E-15, -1.224646799147353207E-16, 1.000000000000000000 ) ) ;
#219 = ORIENTED_EDGE ( 'NONE', *, *, #276, .T. ) ;
#220 = DIRECTION ( 'NONE',  ( 4.275831445896958607E-31, 1.000000000000000000, 1.224646799147353454E-16 ) ) ;
#221 = CONICAL_SURFACE ( 'NONE', #84, 1.004999999999998783, 0.5235987755982920433 ) ;
#222 = ADVANCED_FACE ( 'NONE', ( #242 ), #34, .T. ) ;
#223 = FACE_OUTER_BOUND ( 'NONE', #71, .T. ) ;
#224 = VERTEX_POINT ( 'NONE', #178 ) ;
#225 = APPROVAL_ROLE ( '' ) ;
#226 = DIRECTION ( 'NONE',  ( -3.491481338843133355E-15, 1.224646799147353207E-16, -1.000000000000000000 ) ) ;
#227 = DIRECTION ( 'NONE',  ( 4.275831445896958607E-31, 1.000000000000000000, 1.224646799147353454E-16 ) ) ;
#228 = APPLICATION_CONTEXT ( 'configuration controlled 3d designs of mechanical parts and assemblies' ) ;
#229 = TOROIDAL_SURFACE ( 'NONE', #83, 3.004999999999999893, 2.000000000000000888 ) ;
#230 = ORIENTED_EDGE ( 'NONE', *, *, #21, .T. ) ;
#231 = CLOSED_SHELL ( 'NONE', ( #239, #250, #77, #58, #101, #27, #121, #298 ) ) ;
#232 = CC_DESIGN_PERSON_AND_ORGANIZATION_ASSIGNMENT ( #56, #282, ( #215 ) ) ;
#233 = APPROVAL_ROLE ( '' ) ;
#234 = CARTESIAN_POINT ( 'NONE',  ( 1.745740669421566678E-13, -6.123233995736766085E-15, 50.00000000000000000 ) ) ;
#235 = EDGE_LOOP ( 'NONE', ( #46 ) ) ;
#236 = CONICAL_SURFACE ( 'NONE', #181, 1.499999999999996669, 0.1745329251994264252 ) ;
#237 = ORIENTED_EDGE ( 'NONE', *, *, #23, .T. ) ;
#238 = DIRECTION ( 'NONE',  ( -3.491481338843133355E-15, 1.224646799147353207E-16, -1.000000000000000000 ) ) ;
#239 = ADVANCED_FACE ( 'NONE', ( #169 ), #52, .F. ) ;
#240 = FACE_BOUND ( 'NONE', #163, .T. ) ;
#241 = AXIS2_PLACEMENT_3D ( 'NONE', #35, #238, #124 ) ;
#242 = FACE_OUTER_BOUND ( 'NONE', #260, .T. ) ;
#243 = CC_DESIGN_PERSON_AND_ORGANIZATION_ASSIGNMENT ( #166, #115, ( #215 ) ) ;
#244 = CARTESIAN_POINT ( 'NONE',  ( 8.024213829604037643E-14, 1.499999999999994005, 22.98226182776270576 ) ) ;
#245 = CARTESIAN_POINT ( 'NONE',  ( 6.982962677686266711E-14, -2.602085213965210642E-15, 20.00000000000000000 ) ) ;
#246 = CARTESIAN_POINT ( 'NONE',  ( 1.735266225405037467E-13, 1.499999999999995559, 49.70000000000000284 ) ) ;
#247 = FACE_OUTER_BOUND ( 'NONE', #165, .T. ) ;
#248 = CIRCLE ( 'NONE', #167, 1.500000000000001554 ) ;
#249 = AXIS2_PLACEMENT_3D ( 'NONE', #31, #191, #144 ) ;
#250 = ADVANCED_FACE ( 'NONE', ( #293, #141 ), #221, .T. ) ;
#251 = VERTEX_POINT ( 'NONE', #246 ) ;
#252 = AXIS2_PLACEMENT_3D ( 'NONE', #90, #93, #49 ) ;
#253 = ORIENTED_EDGE ( 'NONE', *, *, #130, .F. ) ;
#254 = EDGE_LOOP ( 'NONE', ( #113 ) ) ;
#255 = CC_DESIGN_DATE_AND_TIME_ASSIGNMENT ( #47, #5, ( #303 ) ) ;
#256 = CC_DESIGN_APPROVAL ( #40, ( #91 ) ) ;
#257 = CALENDAR_DATE ( 2021, 30, 11 ) ;
#258 = ORIENTED_EDGE ( 'NONE', *, *, #66, .T. ) ;
#259 = DATE_AND_TIME ( #88, #273 ) ;
#260 = EDGE_LOOP ( 'NONE', ( #2 ) ) ;
#261 = COORDINATED_UNIVERSAL_TIME_OFFSET ( 1, 0, .AHEAD. ) ;
#262 = ORIENTED_EDGE ( 'NONE', *, *, #265, .T. ) ;
#263 = DIRECTION ( 'NONE',  ( 0.0000000000000000000, 1.000000000000000000, 0.0000000000000000000 ) ) ;
#264 = AXIS2_PLACEMENT_3D ( 'NONE', #195, #145, #125 ) ;
#265 = EDGE_CURVE ( 'NONE', #300, #300, #54, .T. ) ;
#266 = CARTESIAN_POINT ( 'NONE',  ( 8.728703347107829444E-16, -3.061616997868381785E-17, 0.2499999999999998890 ) ) ;
#267 = PLANE ( 'NONE',  #7 ) ;
#268 = DIRECTION ( 'NONE',  ( 4.275831445896958607E-31, 1.000000000000000000, 1.224646799147352961E-16 ) ) ;
#269 = ADVANCED_BREP_SHAPE_REPRESENTATION ( '951944', ( #185, #183, #123 ), #95 ) ;
#270 = VERTEX_POINT ( 'NONE', #61 ) ;
#271 = CYLINDRICAL_SURFACE ( 'NONE', #295, 1.499999999999999112 ) ;
#272 = DIRECTION ( 'NONE',  ( -3.491481338843133355E-15, 1.224646799147353207E-16, -1.000000000000000000 ) ) ;
#273 = LOCAL_TIME ( 7, 45, 5.000000000000000000, #72 ) ;
#274 =( LENGTH_UNIT ( ) NAMED_UNIT ( * ) SI_UNIT ( .MILLI., .METRE. ) );
#275 = VERTEX_POINT ( 'NONE', #244 ) ;
#276 = EDGE_CURVE ( 'NONE', #63, #63, #182, .T. ) ;
#277 = CIRCLE ( 'NONE', #264, 1.499999999999996669 ) ;
#278 = CC_DESIGN_APPROVAL ( #50, ( #303 ) ) ;
#279 = UNCERTAINTY_MEASURE_WITH_UNIT (LENGTH_MEASURE( 1.000000000000000082E-05 ), #274, 'distance_accuracy_value', 'NONE');
#280 = PERSON_AND_ORGANIZATION ( #156, #155 ) ;
#281 = CARTESIAN_POINT ( 'NONE',  ( -4.336387620997090434E-31, 1.521000029653856249E-32, -1.241990777024719194E-16 ) ) ;
#282 = PERSON_AND_ORGANIZATION_ROLE ( 'creator' ) ;
#283 = ORIENTED_EDGE ( 'NONE', *, *, #44, .F. ) ;
#284 = APPROVAL_DATE_TIME ( #118, #50 ) ;
#285 = AXIS2_PLACEMENT_3D ( 'NONE', #13, #290, #76 ) ;
#286 = APPROVAL_DATE_TIME ( #8, #40 ) ;
#287 = VERTEX_POINT ( 'NONE', #153 ) ;
#288 = EDGE_LOOP ( 'NONE', ( #157 ) ) ;
#289 = CARTESIAN_POINT ( 'NONE',  ( 3.584309283006850656E-14, -1.257206458976207460E-15, 10.26586979896182150 ) ) ;
#290 = DIRECTION ( 'NONE',  ( -3.491481338843133355E-15, 1.224646799147353207E-16, -1.000000000000000000 ) ) ;
#291 = CIRCLE ( 'NONE', #170, 1.158499999999993646 ) ;
#292 = AXIS2_PLACEMENT_3D ( 'NONE', #114, #87, #133 ) ;
#293 = FACE_OUTER_BOUND ( 'NONE', #207, .T. ) ;
#294 = FACE_OUTER_BOUND ( 'NONE', #6, .T. ) ;
#295 = AXIS2_PLACEMENT_3D ( 'NONE', #103, #38, #227 ) ;
#296 = DIRECTION ( 'NONE',  ( -3.491481338843133355E-15, 1.224646799147353207E-16, -1.000000000000000000 ) ) ;
#297 = CARTESIAN_POINT ( 'NONE',  ( -2.168193810498545217E-31, 7.605000148269281246E-33, -6.209953885123595969E-17 ) ) ;
#298 = ADVANCED_FACE ( 'NONE', ( #137 ), #65, .F. ) ;
#299 = CARTESIAN_POINT ( 'NONE',  ( 8.728703347107835360E-16, 1.158499999999993646, 0.2500000000000000555 ) ) ;
#300 = VERTEX_POINT ( 'NONE', #176 ) ;
#301 = DIRECTION ( 'NONE',  ( 0.0000000000000000000, 1.000000000000000000, 0.0000000000000000000 ) ) ;
#302 = APPLICATION_CONTEXT ( 'configuration controlled 3d designs of mechanical parts and assemblies' ) ;
#303 = SECURITY_CLASSIFICATION ( '', '', #97 ) ;
ENDSEC;
END-ISO-10303-21;
