ISO-10303-21;
HEADER;
FILE_DESCRIPTION (( 'STEP AP203' ),
    '1' );
FILE_NAME ('951867.step',
    '2021-11-30T08:32:45',
    ( '' ),
    ( '' ),
    'SwSTEP 2.0',
    'SolidWorks 2019',
    '' );
FILE_SCHEMA (( 'CONFIG_CONTROL_DESIGN' ));
ENDSEC;

DATA;
#1 = CC_DESIGN_DATE_AND_TIME_ASSIGNMENT ( #236, #215, ( #22 ) ) ;
#2 = VERTEX_POINT ( 'NONE', #27 ) ;
#3 = AXIS2_PLACEMENT_3D ( 'NONE', #82, #152, #90 ) ;
#4 = VERTEX_POINT ( 'NONE', #185 ) ;
#5 = ORIENTED_EDGE ( 'NONE', *, *, #217, .T. ) ;
#6 = ADVANCED_BREP_SHAPE_REPRESENTATION ( '951867', ( #253, #46, #302 ), #38 ) ;
#7 = APPROVAL_DATE_TIME ( #210, #240 ) ;
#8 = DIRECTION ( 'NONE',  ( 0.0000000000000000000, 1.000000000000000000, 0.0000000000000000000 ) ) ;
#9 = EDGE_CURVE ( 'NONE', #261, #261, #30, .T. ) ;
#10 = LOCAL_TIME ( 9, 32, 45.00000000000000000, #67 ) ;
#11 = DIRECTION ( 'NONE',  ( -4.275831445896958607E-31, -1.000000000000000000, -1.224646799147353207E-16 ) ) ;
#12 = EDGE_LOOP ( 'NONE', ( #283 ) ) ;
#13 = DIRECTION ( 'NONE',  ( -3.491481338843133355E-15, 1.224646799147353207E-16, -1.000000000000000000 ) ) ;
#14 = FACE_OUTER_BOUND ( 'NONE', #260, .T. ) ;
#15 = EDGE_CURVE ( 'NONE', #263, #263, #252, .T. ) ;
#16 = DIRECTION ( 'NONE',  ( 1.000000000000000000, 0.0000000000000000000, 0.0000000000000000000 ) ) ;
#17 = VERTEX_POINT ( 'NONE', #277 ) ;
#18 = DIRECTION ( 'NONE',  ( -4.275831445896958607E-31, -1.000000000000000000, -1.224646799147353207E-16 ) ) ;
#19 = FACE_OUTER_BOUND ( 'NONE', #12, .T. ) ;
#20 = PERSON_AND_ORGANIZATION ( #251, #106 ) ;
#21 = CC_DESIGN_PERSON_AND_ORGANIZATION_ASSIGNMENT ( #20, #112, ( #275 ) ) ;
#22 = SECURITY_CLASSIFICATION ( '', '', #300 ) ;
#23 = ORIENTED_EDGE ( 'NONE', *, *, #15, .T. ) ;
#24 = CONICAL_SURFACE ( 'NONE', #259, 0.9184999999999989839, 0.5235987755982920433 ) ;
#25 = CIRCLE ( 'NONE', #157, 0.8150000000000000577 ) ;
#26 = AXIS2_PLACEMENT_3D ( 'NONE', #290, #131, #303 ) ;
#27 = CARTESIAN_POINT ( 'NONE',  ( 6.056776150402961829E-14, 0.8453844939755794652, 17.34729635533384240 ) ) ;
#28 = ORIENTED_EDGE ( 'NONE', *, *, #205, .T. ) ;
#29 = CARTESIAN_POINT ( 'NONE',  ( 1.735266225405037467E-13, 1.499999999999995559, 49.70000000000000284 ) ) ;
#30 = CIRCLE ( 'NONE', #203, 1.500000000000001554 ) ;
#31 = COORDINATED_UNIVERSAL_TIME_OFFSET ( 1, 0, .AHEAD. ) ;
#32 = DIRECTION ( 'NONE',  ( -4.275831445896958607E-31, -1.000000000000000000, -1.224646799147353207E-16 ) ) ;
#33 = ADVANCED_FACE ( 'NONE', ( #289 ), #187, .F. ) ;
#34 = CALENDAR_DATE ( 2021, 30, 11 ) ;
#35 = DIRECTION ( 'NONE',  ( 3.491481338843133355E-15, -1.224646799147353207E-16, 1.000000000000000000 ) ) ;
#36 = PERSON_AND_ORGANIZATION ( #251, #106 ) ;
#37 = DIRECTION ( 'NONE',  ( 0.0000000000000000000, 1.000000000000000000, 0.0000000000000000000 ) ) ;
#38 =( GEOMETRIC_REPRESENTATION_CONTEXT ( 3 ) GLOBAL_UNCERTAINTY_ASSIGNED_CONTEXT ( ( #143 ) ) GLOBAL_UNIT_ASSIGNED_CONTEXT ( ( #281, #234, #147 ) ) REPRESENTATION_CONTEXT ( 'NONE', 'WORKASPACE' ) );
#39 = CARTESIAN_POINT ( 'NONE',  ( 2.855775899875449572E-14, -1.001671346759487905E-15, 8.179267258583378108 ) ) ;
#40 = AXIS2_PLACEMENT_3D ( 'NONE', #227, #75, #186 ) ;
#41 = CARTESIAN_POINT ( 'NONE',  ( 7.352991746120906735E-14, -2.579082324131089501E-15, 21.05980537349011072 ) ) ;
#42 = FACE_OUTER_BOUND ( 'NONE', #159, .T. ) ;
#43 = EDGE_CURVE ( 'NONE', #17, #17, #25, .T. ) ;
#44 = VERTEX_POINT ( 'NONE', #256 ) ;
#45 = CC_DESIGN_PERSON_AND_ORGANIZATION_ASSIGNMENT ( #172, #62, ( #22 ) ) ;
#46 = MANIFOLD_SOLID_BREP ( 'Corps-Déplacer/Copier1[2]', #301 ) ;
#47 = ORIENTED_EDGE ( 'NONE', *, *, #205, .F. ) ;
#48 = EDGE_LOOP ( 'NONE', ( #94 ) ) ;
#49 = FACE_OUTER_BOUND ( 'NONE', #184, .T. ) ;
#50 = FACE_OUTER_BOUND ( 'NONE', #255, .T. ) ;
#51 = PERSON_AND_ORGANIZATION ( #251, #106 ) ;
#52 = FACE_OUTER_BOUND ( 'NONE', #69, .T. ) ;
#53 = CIRCLE ( 'NONE', #166, 1.499999999999996669 ) ;
#54 = CYLINDRICAL_SURFACE ( 'NONE', #285, 0.9184999999999994280 ) ;
#55 = CARTESIAN_POINT ( 'NONE',  ( 8.728703347107829444E-16, -3.061616997868381785E-17, 0.2499999999999998890 ) ) ;
#56 = DIRECTION ( 'NONE',  ( 3.491481338843133355E-15, -1.224646799147353207E-16, 1.000000000000000000 ) ) ;
#57 = ORIENTED_EDGE ( 'NONE', *, *, #217, .F. ) ;
#58 = PERSON_AND_ORGANIZATION_ROLE ( 'creator' ) ;
#59 = CYLINDRICAL_SURFACE ( 'NONE', #118, 1.499999999999999112 ) ;
#60 = DATE_AND_TIME ( #34, #150 ) ;
#61 = CARTESIAN_POINT ( 'NONE',  ( 7.352991746120906735E-14, -2.579082324131089501E-15, 21.05980537349011072 ) ) ;
#62 = PERSON_AND_ORGANIZATION_ROLE ( 'classification_officer' ) ;
#63 = ADVANCED_FACE ( 'NONE', ( #49 ), #262, .T. ) ;
#64 = CIRCLE ( 'NONE', #220, 0.9184999999999989839 ) ;
#65 = AXIS2_PLACEMENT_3D ( 'NONE', #266, #264, #32 ) ;
#66 = ORIENTED_EDGE ( 'NONE', *, *, #9, .T. ) ;
#67 = COORDINATED_UNIVERSAL_TIME_OFFSET ( 1, 0, .AHEAD. ) ;
#68 = APPROVAL ( #89, 'UNSPECIFIED' ) ;
#69 = EDGE_LOOP ( 'NONE', ( #139 ) ) ;
#70 = ADVANCED_FACE ( 'NONE', ( #76, #50 ), #54, .T. ) ;
#71 = EDGE_LOOP ( 'NONE', ( #97 ) ) ;
#72 = CIRCLE ( 'NONE', #81, 0.7741624327025947716 ) ;
#73 = AXIS2_PLACEMENT_3D ( 'NONE', #190, #99, #164 ) ;
#74 = CC_DESIGN_APPROVAL ( #240, ( #22 ) ) ;
#75 = DIRECTION ( 'NONE',  ( -3.491481338843133355E-15, 1.224646799147353207E-16, -1.000000000000000000 ) ) ;
#76 = FACE_OUTER_BOUND ( 'NONE', #211, .T. ) ;
#77 = DIRECTION ( 'NONE',  ( 0.0000000000000000000, 1.000000000000000000, 0.0000000000000000000 ) ) ;
#78 = APPLICATION_CONTEXT ( 'configuration controlled 3d designs of mechanical parts and assemblies' ) ;
#79 = CARTESIAN_POINT ( 'NONE',  ( -1.655094036990921491E-31, 5.805288409075093034E-33, -4.740377726146804957E-17 ) ) ;
#80 = FACE_BOUND ( 'NONE', #48, .T. ) ;
#81 = AXIS2_PLACEMENT_3D ( 'NONE', #146, #273, #241 ) ;
#82 = CARTESIAN_POINT ( 'NONE',  ( 1.745740669421566678E-13, 8.998558695971067645E-33, 50.00000000000000000 ) ) ;
#83 = ORIENTED_EDGE ( 'NONE', *, *, #153, .F. ) ;
#84 = APPLICATION_PROTOCOL_DEFINITION ( 'international standard', 'config_control_design', 1994, #148 ) ;
#85 = DIRECTION ( 'NONE',  ( 0.0000000000000000000, 1.000000000000000000, 0.0000000000000000000 ) ) ;
#86 = CARTESIAN_POINT ( 'NONE',  ( 0.0000000000000000000, 0.0000000000000000000, 0.0000000000000000000 ) ) ;
#87 = ADVANCED_FACE ( 'NONE', ( #14 ), #169, .F. ) ;
#88 = DIRECTION ( 'NONE',  ( -3.491481338843133355E-15, 1.224646799147353207E-16, -1.000000000000000000 ) ) ;
#89 = APPROVAL_STATUS ( 'not_yet_approved' ) ;
#90 = DIRECTION ( 'NONE',  ( 4.275831445896958607E-31, 1.000000000000000000, 1.224646799147353207E-16 ) ) ;
#91 = CARTESIAN_POINT ( 'NONE',  ( 2.855775899875449572E-14, 0.8149999999999988365, 8.179267258583378108 ) ) ;
#92 = AXIS2_PLACEMENT_3D ( 'NONE', #79, #287, #11 ) ;
#93 = APPROVAL_PERSON_ORGANIZATION ( #51, #68, #242 ) ;
#94 = ORIENTED_EDGE ( 'NONE', *, *, #117, .T. ) ;
#95 = CARTESIAN_POINT ( 'NONE',  ( 8.728703347107833388E-16, 0.9184999999999989839, 0.2500000000000000000 ) ) ;
#96 = ORIENTED_EDGE ( 'NONE', *, *, #117, .F. ) ;
#97 = ORIENTED_EDGE ( 'NONE', *, *, #233, .T. ) ;
#98 = APPROVAL ( #272, 'UNSPECIFIED' ) ;
#99 = DIRECTION ( 'NONE',  ( -3.491481338843133355E-15, 1.224646799147353207E-16, -1.000000000000000000 ) ) ;
#100 = PERSON_AND_ORGANIZATION ( #251, #106 ) ;
#101 = CARTESIAN_POINT ( 'NONE',  ( 5.935518276033326704E-14, -2.168404344971008868E-15, 17.00000000000000000 ) ) ;
#102 = CC_DESIGN_DATE_AND_TIME_ASSIGNMENT ( #245, #127, ( #120 ) ) ;
#103 = CALENDAR_DATE ( 2021, 30, 11 ) ;
#104 = FACE_OUTER_BOUND ( 'NONE', #258, .T. ) ;
#105 = CIRCLE ( 'NONE', #128, 0.8453844939755815746 ) ;
#106 = ORGANIZATION ( 'UNSPECIFIED', 'UNSPECIFIED', '' ) ;
#107 = PERSON_AND_ORGANIZATION ( #251, #106 ) ;
#108 = DIRECTION ( 'NONE',  ( -3.491481338843133355E-15, 1.224646799147353207E-16, -1.000000000000000000 ) ) ;
#109 = EDGE_LOOP ( 'NONE', ( #28 ) ) ;
#110 = CC_DESIGN_PERSON_AND_ORGANIZATION_ASSIGNMENT ( #248, #224, ( #275 ) ) ;
#111 = DIRECTION ( 'NONE',  ( 0.0000000000000000000, -1.000000000000000000, 0.0000000000000000000 ) ) ;
#112 = PERSON_AND_ORGANIZATION_ROLE ( 'design_supplier' ) ;
#113 = CARTESIAN_POINT ( 'NONE',  ( 2.793185071074506684E-14, 6.887646801874566476E-33, 8.000000000000000000 ) ) ;
#114 = PRODUCT_DEFINITION_SHAPE ( 'NONE', 'NONE',  #120 ) ;
#115 = EDGE_LOOP ( 'NONE', ( #235 ) ) ;
#116 = ORIENTED_EDGE ( 'NONE', *, *, #15, .F. ) ;
#117 = EDGE_CURVE ( 'NONE', #154, #154, #228, .T. ) ;
#118 = AXIS2_PLACEMENT_3D ( 'NONE', #167, #108, #149 ) ;
#119 = EDGE_LOOP ( 'NONE', ( #181 ) ) ;
#120 = PRODUCT_DEFINITION ( 'UNKNOWN', '', #275, #292 ) ;
#121 = FACE_OUTER_BOUND ( 'NONE', #115, .T. ) ;
#122 = COORDINATED_UNIVERSAL_TIME_OFFSET ( 1, 0, .AHEAD. ) ;
#123 = CARTESIAN_POINT ( 'NONE',  ( 6.056776150402961829E-14, -2.124431095542013598E-15, 17.34729635533384240 ) ) ;
#124 = CARTESIAN_POINT ( 'NONE',  ( 2.793185071074506684E-14, -9.797174393178825657E-16, 8.000000000000000000 ) ) ;
#125 = ORIENTED_EDGE ( 'NONE', *, *, #43, .F. ) ;
#126 = AXIS2_PLACEMENT_3D ( 'NONE', #124, #196, #85 ) ;
#127 = DATE_TIME_ROLE ( 'creation_date' ) ;
#128 = AXIS2_PLACEMENT_3D ( 'NONE', #123, #88, #247 ) ;
#129 = PERSON_AND_ORGANIZATION ( #251, #106 ) ;
#130 = DIRECTION ( 'NONE',  ( -3.491481338843133355E-15, 1.224646799147353207E-16, -1.000000000000000000 ) ) ;
#131 = DIRECTION ( 'NONE',  ( -3.491481338843133355E-15, 1.224646799147353207E-16, -1.000000000000000000 ) ) ;
#132 = APPROVAL_PERSON_ORGANIZATION ( #100, #240, #179 ) ;
#133 = CARTESIAN_POINT ( 'NONE',  ( 1.745740669421566678E-13, 1.199999999999995515, 50.00000000000000000 ) ) ;
#134 = ORIENTED_EDGE ( 'NONE', *, *, #158, .F. ) ;
#135 = EDGE_CURVE ( 'NONE', #2, #2, #105, .T. ) ;
#136 = CC_DESIGN_SECURITY_CLASSIFICATION ( #22, ( #275 ) ) ;
#137 = EDGE_LOOP ( 'NONE', ( #83 ) ) ;
#138 = TOROIDAL_SURFACE ( 'NONE', #160, 2.815000000000000391, 2.000000000000000000 ) ;
#139 = ORIENTED_EDGE ( 'NONE', *, *, #43, .T. ) ;
#140 = ADVANCED_FACE ( 'NONE', ( #293, #176 ), #278, .T. ) ;
#141 = DIRECTION ( 'NONE',  ( -3.491481338843133355E-15, 1.224646799147353207E-16, -1.000000000000000000 ) ) ;
#142 = PERSON_AND_ORGANIZATION_ROLE ( 'design_owner' ) ;
#143 = UNCERTAINTY_MEASURE_WITH_UNIT (LENGTH_MEASURE( 1.000000000000000082E-05 ), #281, 'distance_accuracy_value', 'NONE');
#144 = DIRECTION ( 'NONE',  ( 3.491481338843133355E-15, -1.224646799147353207E-16, 1.000000000000000000 ) ) ;
#145 = ADVANCED_FACE ( 'NONE', ( #271, #104 ), #59, .T. ) ;
#146 = CARTESIAN_POINT ( 'NONE',  ( -3.310188073981842982E-31, 1.161057681815018607E-32, -9.480755452293609913E-17 ) ) ;
#147 =( NAMED_UNIT ( * ) SI_UNIT ( $, .STERADIAN. ) SOLID_ANGLE_UNIT ( ) );
#148 = APPLICATION_CONTEXT ( 'configuration controlled 3d designs of mechanical parts and assemblies' ) ;
#149 = DIRECTION ( 'NONE',  ( 4.275831445896958607E-31, 1.000000000000000000, 1.224646799147353454E-16 ) ) ;
#150 = LOCAL_TIME ( 9, 32, 45.00000000000000000, #297 ) ;
#151 = DATE_AND_TIME ( #195, #232 ) ;
#152 = DIRECTION ( 'NONE',  ( -3.491481338843133355E-15, 1.224646799147353207E-16, -1.000000000000000000 ) ) ;
#153 = EDGE_CURVE ( 'NONE', #155, #155, #192, .T. ) ;
#154 = VERTEX_POINT ( 'NONE', #133 ) ;
#155 = VERTEX_POINT ( 'NONE', #91 ) ;
#156 = CLOSED_SHELL ( 'NONE', ( #87, #214, #295, #280, #140, #145, #198, #173 ) ) ;
#157 = AXIS2_PLACEMENT_3D ( 'NONE', #213, #286, #77 ) ;
#158 = EDGE_CURVE ( 'NONE', #229, #229, #64, .T. ) ;
#159 = EDGE_LOOP ( 'NONE', ( #57 ) ) ;
#160 = AXIS2_PLACEMENT_3D ( 'NONE', #101, #13, #291 ) ;
#161 = CARTESIAN_POINT ( 'NONE',  ( 0.0000000000000000000, 0.0000000000000000000, 0.0000000000000000000 ) ) ;
#162 = CC_DESIGN_PERSON_AND_ORGANIZATION_ASSIGNMENT ( #129, #142, ( #202 ) ) ;
#163 = DIRECTION ( 'NONE',  ( -3.491481338843133355E-15, 1.224646799147353207E-16, -1.000000000000000000 ) ) ;
#164 = DIRECTION ( 'NONE',  ( 0.0000000000000000000, 1.000000000000000000, 0.0000000000000000000 ) ) ;
#165 = CARTESIAN_POINT ( 'NONE',  ( 1.745740669421566678E-13, -6.123233995736766085E-15, 50.00000000000000000 ) ) ;
#166 = AXIS2_PLACEMENT_3D ( 'NONE', #41, #130, #225 ) ;
#167 = CARTESIAN_POINT ( 'NONE',  ( 0.0000000000000000000, 0.0000000000000000000, 0.0000000000000000000 ) ) ;
#168 = APPROVAL_ROLE ( '' ) ;
#169 = PLANE ( 'NONE',  #200 ) ;
#170 = APPROVAL_DATE_TIME ( #60, #68 ) ;
#171 = FACE_BOUND ( 'NONE', #299, .T. ) ;
#172 = PERSON_AND_ORGANIZATION ( #251, #106 ) ;
#173 = ADVANCED_FACE ( 'NONE', ( #298 ), #279, .F. ) ;
#174 = FACE_OUTER_BOUND ( 'NONE', #137, .T. ) ;
#175 = AXIS2_PLACEMENT_3D ( 'NONE', #165, #199, #226 ) ;
#176 = FACE_OUTER_BOUND ( 'NONE', #71, .T. ) ;
#177 = CC_DESIGN_APPROVAL ( #98, ( #275 ) ) ;
#178 = CALENDAR_DATE ( 2021, 30, 11 ) ;
#179 = APPROVAL_ROLE ( '' ) ;
#180 = SHAPE_DEFINITION_REPRESENTATION ( #114, #6 ) ;
#181 = ORIENTED_EDGE ( 'NONE', *, *, #233, .F. ) ;
#182 = AXIS2_PLACEMENT_3D ( 'NONE', #61, #56, #111 ) ;
#183 = PRODUCT_RELATED_PRODUCT_CATEGORY ( 'detail', '', ( #202 ) ) ;
#184 = EDGE_LOOP ( 'NONE', ( #116 ) ) ;
#185 = CARTESIAN_POINT ( 'NONE',  ( 7.352991746120906735E-14, 1.499999999999994005, 21.05980537349011072 ) ) ;
#186 = DIRECTION ( 'NONE',  ( 4.275831445896958607E-31, 1.000000000000000000, 1.224646799147353207E-16 ) ) ;
#187 = PLANE ( 'NONE',  #92 ) ;
#188 = CARTESIAN_POINT ( 'NONE',  ( 1.735266225405037467E-13, -6.086494591762345225E-15, 49.70000000000000284 ) ) ;
#189 = APPLICATION_PROTOCOL_DEFINITION ( 'international standard', 'config_control_design', 1994, #78 ) ;
#190 = CARTESIAN_POINT ( 'NONE',  ( 2.793185071074506684E-14, -9.797174393178825657E-16, 8.000000000000000000 ) ) ;
#191 = COORDINATED_UNIVERSAL_TIME_OFFSET ( 1, 0, .AHEAD. ) ;
#192 = CIRCLE ( 'NONE', #269, 0.8149999999999998357 ) ;
#193 = DIRECTION ( 'NONE',  ( -3.491481338843133355E-15, 1.224646799147353207E-16, -1.000000000000000000 ) ) ;
#194 = LOCAL_TIME ( 9, 32, 45.00000000000000000, #31 ) ;
#195 = CALENDAR_DATE ( 2021, 30, 11 ) ;
#196 = DIRECTION ( 'NONE',  ( -3.491481338843133355E-15, 1.224646799147353207E-16, -1.000000000000000000 ) ) ;
#197 = DIRECTION ( 'NONE',  ( -4.193641686199755798E-31, -1.000000000000000000, -1.180405195955912421E-16 ) ) ;
#198 = ADVANCED_FACE ( 'NONE', ( #19, #80 ), #209, .T. ) ;
#199 = DIRECTION ( 'NONE',  ( -3.491481338843133355E-15, 1.224646799147353207E-16, -1.000000000000000000 ) ) ;
#200 = AXIS2_PLACEMENT_3D ( 'NONE', #113, #35, #18 ) ;
#201 = ADVANCED_FACE ( 'NONE', ( #171, #267 ), #24, .T. ) ;
#202 = PRODUCT ( '951867', '951867', '', ( #239 ) ) ;
#203 = AXIS2_PLACEMENT_3D ( 'NONE', #188, #163, #8 ) ;
#204 = CYLINDRICAL_SURFACE ( 'NONE', #40, 0.8149999999999999467 ) ;
#205 = EDGE_CURVE ( 'NONE', #230, #230, #72, .T. ) ;
#206 = ORIENTED_EDGE ( 'NONE', *, *, #135, .F. ) ;
#207 = EDGE_LOOP ( 'NONE', ( #96 ) ) ;
#208 = EDGE_LOOP ( 'NONE', ( #206 ) ) ;
#209 = CONICAL_SURFACE ( 'NONE', #175, 1.200000000000001732, 0.7853981633974453924 ) ;
#210 = DATE_AND_TIME ( #178, #10 ) ;
#211 = EDGE_LOOP ( 'NONE', ( #134 ) ) ;
#212 = EDGE_LOOP ( 'NONE', ( #257 ) ) ;
#213 = CARTESIAN_POINT ( 'NONE',  ( 5.935518276033326704E-14, -2.081899558550500280E-15, 17.00000000000000000 ) ) ;
#214 = ADVANCED_FACE ( 'NONE', ( #249, #42 ), #294, .T. ) ;
#215 = DATE_TIME_ROLE ( 'classification_date' ) ;
#216 = APPROVAL_STATUS ( 'not_yet_approved' ) ;
#217 = EDGE_CURVE ( 'NONE', #44, #44, #222, .T. ) ;
#218 = CARTESIAN_POINT ( 'NONE',  ( 2.793185071074506684E-14, -9.797174393178825657E-16, 8.000000000000000000 ) ) ;
#219 = DIRECTION ( 'NONE',  ( 0.0000000000000000000, 0.0000000000000000000, 1.000000000000000000 ) ) ;
#220 = AXIS2_PLACEMENT_3D ( 'NONE', #221, #296, #270 ) ;
#221 = CARTESIAN_POINT ( 'NONE',  ( 8.728703347107829444E-16, -3.061616997868381785E-17, 0.2499999999999998890 ) ) ;
#222 = CIRCLE ( 'NONE', #126, 0.9184999999999999831 ) ;
#223 = DIRECTION ( 'NONE',  ( 0.0000000000000000000, 1.000000000000000000, 0.0000000000000000000 ) ) ;
#224 = PERSON_AND_ORGANIZATION_ROLE ( 'creator' ) ;
#225 = DIRECTION ( 'NONE',  ( 0.0000000000000000000, 1.000000000000000000, 0.0000000000000000000 ) ) ;
#226 = DIRECTION ( 'NONE',  ( 0.0000000000000000000, 1.000000000000000000, 0.0000000000000000000 ) ) ;
#227 = CARTESIAN_POINT ( 'NONE',  ( 0.0000000000000000000, 0.0000000000000000000, 0.0000000000000000000 ) ) ;
#228 = CIRCLE ( 'NONE', #26, 1.200000000000001732 ) ;
#229 = VERTEX_POINT ( 'NONE', #95 ) ;
#230 = VERTEX_POINT ( 'NONE', #254 ) ;
#231 = ORIENTED_EDGE ( 'NONE', *, *, #158, .T. ) ;
#232 = LOCAL_TIME ( 9, 32, 45.00000000000000000, #122 ) ;
#233 = EDGE_CURVE ( 'NONE', #4, #4, #53, .T. ) ;
#234 =( NAMED_UNIT ( * ) PLANE_ANGLE_UNIT ( ) SI_UNIT ( $, .RADIAN. ) );
#235 = ORIENTED_EDGE ( 'NONE', *, *, #135, .T. ) ;
#236 = DATE_AND_TIME ( #288, #282 ) ;
#237 = FACE_OUTER_BOUND ( 'NONE', #284, .T. ) ;
#238 = DIRECTION ( 'NONE',  ( 4.275831445896958607E-31, 1.000000000000000000, 1.224646799147353207E-16 ) ) ;
#239 = MECHANICAL_CONTEXT ( 'NONE', #148, 'mechanical' ) ;
#240 = APPROVAL ( #216, 'UNSPECIFIED' ) ;
#241 = DIRECTION ( 'NONE',  ( 4.275831445896958607E-31, 1.000000000000000000, 1.224646799147353207E-16 ) ) ;
#242 = APPROVAL_ROLE ( '' ) ;
#243 = DIRECTION ( 'NONE',  ( -3.491481338843133355E-15, 1.224646799147353207E-16, -1.000000000000000000 ) ) ;
#244 = EDGE_LOOP ( 'NONE', ( #231 ) ) ;
#245 = DATE_AND_TIME ( #103, #194 ) ;
#246 = AXIS2_PLACEMENT_3D ( 'NONE', #218, #243, #37 ) ;
#247 = DIRECTION ( 'NONE',  ( 0.0000000000000000000, 1.000000000000000000, 0.0000000000000000000 ) ) ;
#248 = PERSON_AND_ORGANIZATION ( #251, #106 ) ;
#249 = FACE_BOUND ( 'NONE', #212, .T. ) ;
#250 = CARTESIAN_POINT ( 'NONE',  ( 2.793185071074506684E-14, 0.9184999999999989839, 8.000000000000000000 ) ) ;
#251 = PERSON ( 'UNSPECIFIED', 'UNSPECIFIED', 'UNSPECIFIED', ('UNSPECIFIED'), ('UNSPECIFIED'), ('UNSPECIFIED') ) ;
#252 = CIRCLE ( 'NONE', #73, 0.9184999999999999831 ) ;
#253 = MANIFOLD_SOLID_BREP ( 'Corps-Déplacer/Copier1[1]', #156 ) ;
#254 = CARTESIAN_POINT ( 'NONE',  ( 0.0000000000000000000, 0.7741624327025947716, 0.0000000000000000000 ) ) ;
#255 = EDGE_LOOP ( 'NONE', ( #23 ) ) ;
#256 = CARTESIAN_POINT ( 'NONE',  ( 2.793185071074506684E-14, 0.9184999999999989839, 8.000000000000000000 ) ) ;
#257 = ORIENTED_EDGE ( 'NONE', *, *, #153, .T. ) ;
#258 = EDGE_LOOP ( 'NONE', ( #66 ) ) ;
#259 = AXIS2_PLACEMENT_3D ( 'NONE', #55, #144, #197 ) ;
#260 = EDGE_LOOP ( 'NONE', ( #5 ) ) ;
#261 = VERTEX_POINT ( 'NONE', #29 ) ;
#262 = PLANE ( 'NONE',  #65 ) ;
#263 = VERTEX_POINT ( 'NONE', #250 ) ;
#264 = DIRECTION ( 'NONE',  ( 3.491481338843133355E-15, -1.224646799147353207E-16, 1.000000000000000000 ) ) ;
#265 = CC_DESIGN_PERSON_AND_ORGANIZATION_ASSIGNMENT ( #36, #58, ( #120 ) ) ;
#266 = CARTESIAN_POINT ( 'NONE',  ( 2.793185071074506684E-14, 6.887646801874566476E-33, 8.000000000000000000 ) ) ;
#267 = FACE_OUTER_BOUND ( 'NONE', #244, .T. ) ;
#268 = APPROVAL_PERSON_ORGANIZATION ( #107, #98, #168 ) ;
#269 = AXIS2_PLACEMENT_3D ( 'NONE', #39, #193, #223 ) ;
#270 = DIRECTION ( 'NONE',  ( 4.193641686199755798E-31, 1.000000000000000000, 1.180405195955912421E-16 ) ) ;
#271 = FACE_OUTER_BOUND ( 'NONE', #119, .T. ) ;
#272 = APPROVAL_STATUS ( 'not_yet_approved' ) ;
#273 = DIRECTION ( 'NONE',  ( -3.491481338843133355E-15, 1.224646799147353207E-16, -1.000000000000000000 ) ) ;
#274 = CC_DESIGN_APPROVAL ( #68, ( #120 ) ) ;
#275 = PRODUCT_DEFINITION_FORMATION_WITH_SPECIFIED_SOURCE ( 'ANY', '', #202, .NOT_KNOWN. ) ;
#276 = APPROVAL_DATE_TIME ( #151, #98 ) ;
#277 = CARTESIAN_POINT ( 'NONE',  ( 5.935518276033326704E-14, 0.8149999999999980593, 17.00000000000000000 ) ) ;
#278 = CONICAL_SURFACE ( 'NONE', #182, 1.499999999999996669, 0.1745329251994257591 ) ;
#279 = PLANE ( 'NONE',  #3 ) ;
#280 = ADVANCED_FACE ( 'NONE', ( #237, #121 ), #138, .F. ) ;
#281 =( LENGTH_UNIT ( ) NAMED_UNIT ( * ) SI_UNIT ( .MILLI., .METRE. ) );
#282 = LOCAL_TIME ( 9, 32, 45.00000000000000000, #191 ) ;
#283 = ORIENTED_EDGE ( 'NONE', *, *, #9, .F. ) ;
#284 = EDGE_LOOP ( 'NONE', ( #125 ) ) ;
#285 = AXIS2_PLACEMENT_3D ( 'NONE', #161, #141, #238 ) ;
#286 = DIRECTION ( 'NONE',  ( -3.491481338843133355E-15, 1.224646799147353207E-16, -1.000000000000000000 ) ) ;
#287 = DIRECTION ( 'NONE',  ( 3.491481338843133355E-15, -1.224646799147353207E-16, 1.000000000000000000 ) ) ;
#288 = CALENDAR_DATE ( 2021, 30, 11 ) ;
#289 = FACE_OUTER_BOUND ( 'NONE', #109, .T. ) ;
#290 = CARTESIAN_POINT ( 'NONE',  ( 1.745740669421566678E-13, -6.123233995736766085E-15, 50.00000000000000000 ) ) ;
#291 = DIRECTION ( 'NONE',  ( 4.275831445896958607E-31, 1.000000000000000000, 1.224646799147353207E-16 ) ) ;
#292 = DESIGN_CONTEXT ( 'detailed design', #78, 'design' ) ;
#293 = FACE_BOUND ( 'NONE', #208, .T. ) ;
#294 = CONICAL_SURFACE ( 'NONE', #246, 0.9184999999999999831, 0.5235987755983029235 ) ;
#295 = ADVANCED_FACE ( 'NONE', ( #52, #174 ), #204, .T. ) ;
#296 = DIRECTION ( 'NONE',  ( -3.491481338843133355E-15, 1.224646799147353207E-16, -1.000000000000000000 ) ) ;
#297 = COORDINATED_UNIVERSAL_TIME_OFFSET ( 1, 0, .AHEAD. ) ;
#298 = FACE_OUTER_BOUND ( 'NONE', #207, .T. ) ;
#299 = EDGE_LOOP ( 'NONE', ( #47 ) ) ;
#300 = SECURITY_CLASSIFICATION_LEVEL ( 'unclassified' ) ;
#301 = CLOSED_SHELL ( 'NONE', ( #33, #201, #70, #63 ) ) ;
#302 = AXIS2_PLACEMENT_3D ( 'NONE', #86, #219, #16 ) ;
#303 = DIRECTION ( 'NONE',  ( 0.0000000000000000000, 1.000000000000000000, 0.0000000000000000000 ) ) ;
ENDSEC;
END-ISO-10303-21;
