ISO-10303-21;
HEADER;
FILE_DESCRIPTION (( 'STEP AP203' ),
    '1' );
FILE_NAME ('951598.step',
    '2021-11-29T14:49:32',
    ( '' ),
    ( '' ),
    'SwSTEP 2.0',
    'SolidWorks 2019',
    '' );
FILE_SCHEMA (( 'CONFIG_CONTROL_DESIGN' ));
ENDSEC;

DATA;
#1 = ADVANCED_FACE ( 'NONE', ( #293 ), #264, .F. ) ;
#2 = EDGE_LOOP ( 'NONE', ( #3 ) ) ;
#3 = ORIENTED_EDGE ( 'NONE', *, *, #279, .F. ) ;
#4 = AXIS2_PLACEMENT_3D ( 'NONE', #176, #221, #61 ) ;
#5 = DATE_AND_TIME ( #171, #113 ) ;
#6 = ORIENTED_EDGE ( 'NONE', *, *, #296, .F. ) ;
#7 = CIRCLE ( 'NONE', #138, 0.4800000000000000933 ) ;
#8 = FACE_OUTER_BOUND ( 'NONE', #23, .T. ) ;
#9 = DIRECTION ( 'NONE',  ( 3.491481338843133355E-15, -1.224646799147352961E-16, 1.000000000000000000 ) ) ;
#10 = CC_DESIGN_PERSON_AND_ORGANIZATION_ASSIGNMENT ( #91, #72, ( #144 ) ) ;
#11 = CALENDAR_DATE ( 2021, 29, 11 ) ;
#12 = FACE_OUTER_BOUND ( 'NONE', #173, .T. ) ;
#13 = FACE_BOUND ( 'NONE', #212, .T. ) ;
#14 = CARTESIAN_POINT ( 'NONE',  ( 1.745740669421566678E-14, 0.5634999999999993348, 5.000000000000000000 ) ) ;
#15 = APPLICATION_CONTEXT ( 'configuration controlled 3d designs of mechanical parts and assemblies' ) ;
#16 = FACE_OUTER_BOUND ( 'NONE', #145, .T. ) ;
#17 = DIRECTION ( 'NONE',  ( -3.491481338843133355E-15, 1.224646799147352961E-16, -1.000000000000000000 ) ) ;
#18 = APPROVAL ( #190, 'UNSPECIFIED' ) ;
#19 = LOCAL_TIME ( 15, 49, 32.00000000000000000, #127 ) ;
#20 = MECHANICAL_CONTEXT ( 'NONE', #192, 'mechanical' ) ;
#21 = AXIS2_PLACEMENT_3D ( 'NONE', #34, #272, #125 ) ;
#22 = EDGE_LOOP ( 'NONE', ( #98 ) ) ;
#23 = EDGE_LOOP ( 'NONE', ( #27 ) ) ;
#24 = DATE_TIME_ROLE ( 'creation_date' ) ;
#25 = EDGE_LOOP ( 'NONE', ( #119 ) ) ;
#26 = CIRCLE ( 'NONE', #237, 1.200000000000003286 ) ;
#27 = ORIENTED_EDGE ( 'NONE', *, *, #214, .T. ) ;
#28 = EDGE_LOOP ( 'NONE', ( #123 ) ) ;
#29 = DESIGN_CONTEXT ( 'detailed design', #15, 'design' ) ;
#30 = DIRECTION ( 'NONE',  ( -3.491481338843133355E-15, 1.224646799147352961E-16, -1.000000000000000000 ) ) ;
#31 = DIRECTION ( 'NONE',  ( 0.0000000000000000000, 1.000000000000000000, 0.0000000000000000000 ) ) ;
#32 = ORGANIZATION ( 'UNSPECIFIED', 'UNSPECIFIED', '' ) ;
#33 = DIRECTION ( 'NONE',  ( 0.0000000000000000000, 1.000000000000000000, 0.0000000000000000000 ) ) ;
#34 = CARTESIAN_POINT ( 'NONE',  ( 1.745740669421566678E-14, -6.123233995736765296E-16, 5.000000000000000000 ) ) ;
#35 = DIRECTION ( 'NONE',  ( -3.491481338843133355E-15, 1.224646799147352961E-16, -1.000000000000000000 ) ) ;
#36 = CARTESIAN_POINT ( 'NONE',  ( 8.728703347107831416E-16, -3.061616997868381785E-17, 0.2499999999999999445 ) ) ;
#37 = CARTESIAN_POINT ( 'NONE',  ( 0.0000000000000000000, 0.0000000000000000000, 0.0000000000000000000 ) ) ;
#38 = CARTESIAN_POINT ( 'NONE',  ( 1.796236652077401126E-14, -6.300350060603827763E-16, 5.144626242432003949 ) ) ;
#39 = CC_DESIGN_DATE_AND_TIME_ASSIGNMENT ( #5, #24, ( #144 ) ) ;
#40 = DIRECTION ( 'NONE',  ( -3.491481338843133355E-15, 1.224646799147352961E-16, -1.000000000000000000 ) ) ;
#41 = CALENDAR_DATE ( 2021, 29, 11 ) ;
#42 = VERTEX_POINT ( 'NONE', #90 ) ;
#43 = APPROVAL_ROLE ( '' ) ;
#44 = CARTESIAN_POINT ( 'NONE',  ( 4.189777606611760026E-14, 0.4799999999999986500, 12.00000000000000000 ) ) ;
#45 = CARTESIAN_POINT ( 'NONE',  ( 0.0000000000000000000, 0.0000000000000000000, 0.0000000000000000000 ) ) ;
#46 = CIRCLE ( 'NONE', #21, 0.5635000000000000009 ) ;
#47 = EDGE_LOOP ( 'NONE', ( #189 ) ) ;
#48 = EDGE_CURVE ( 'NONE', #287, #287, #97, .T. ) ;
#49 = ORIENTED_EDGE ( 'NONE', *, *, #155, .T. ) ;
#50 = ADVANCED_FACE ( 'NONE', ( #175, #288 ), #263, .T. ) ;
#51 = ORIENTED_EDGE ( 'NONE', *, *, #63, .T. ) ;
#52 = AXIS2_PLACEMENT_3D ( 'NONE', #45, #137, #230 ) ;
#53 = LOCAL_TIME ( 15, 49, 32.00000000000000000, #227 ) ;
#54 = CARTESIAN_POINT ( 'NONE',  ( 6.270590427156639929E-14, -2.199427048327245363E-15, 17.95968478306212646 ) ) ;
#55 = DIRECTION ( 'NONE',  ( 3.491481338843133355E-15, -1.224646799147352961E-16, 1.000000000000000000 ) ) ;
#56 = DIRECTION ( 'NONE',  ( 4.275831445896957731E-31, 1.000000000000000000, 1.224646799147352961E-16 ) ) ;
#57 = DIRECTION ( 'NONE',  ( 3.491481338843133355E-15, -1.224646799147352961E-16, 1.000000000000000000 ) ) ;
#58 = CIRCLE ( 'NONE', #280, 0.5634999999999993348 ) ;
#59 = CYLINDRICAL_SURFACE ( 'NONE', #203, 0.5634999999999996678 ) ;
#60 = EDGE_LOOP ( 'NONE', ( #216 ) ) ;
#61 = DIRECTION ( 'NONE',  ( 4.275831445896957731E-31, 1.000000000000000000, 1.224646799147352961E-16 ) ) ;
#62 = DIRECTION ( 'NONE',  ( 4.275831445896957731E-31, 1.000000000000000000, 1.224646799147352961E-16 ) ) ;
#63 = EDGE_CURVE ( 'NONE', #268, #268, #74, .T. ) ;
#64 = DIRECTION ( 'NONE',  ( -3.491481338843133355E-15, 1.224646799147352961E-16, -1.000000000000000000 ) ) ;
#65 = AXIS2_PLACEMENT_3D ( 'NONE', #242, #57, #247 ) ;
#66 = DATE_TIME_ROLE ( 'classification_date' ) ;
#67 = VERTEX_POINT ( 'NONE', #44 ) ;
#68 = ADVANCED_FACE ( 'NONE', ( #152 ), #100, .F. ) ;
#69 = CALENDAR_DATE ( 2021, 29, 11 ) ;
#70 = COORDINATED_UNIVERSAL_TIME_OFFSET ( 1, 0, .AHEAD. ) ;
#71 = TOROIDAL_SURFACE ( 'NONE', #4, 2.479999999999999982, 2.000000000000000000 ) ;
#72 = PERSON_AND_ORGANIZATION_ROLE ( 'creator' ) ;
#73 = ORIENTED_EDGE ( 'NONE', *, *, #181, .T. ) ;
#74 = CIRCLE ( 'NONE', #87, 0.4799999999999991496 ) ;
#75 = EDGE_CURVE ( 'NONE', #292, #292, #46, .T. ) ;
#76 = FACE_OUTER_BOUND ( 'NONE', #2, .T. ) ;
#77 = FACE_OUTER_BOUND ( 'NONE', #286, .T. ) ;
#78 = ORIENTED_EDGE ( 'NONE', *, *, #155, .F. ) ;
#79 = DIRECTION ( 'NONE',  ( 0.0000000000000000000, 1.000000000000000000, 0.0000000000000000000 ) ) ;
#80 = DIRECTION ( 'NONE',  ( -4.275831445896957731E-31, -1.000000000000000000, -1.224646799147352961E-16 ) ) ;
#81 = AXIS2_PLACEMENT_3D ( 'NONE', #154, #294, #151 ) ;
#82 = CARTESIAN_POINT ( 'NONE',  ( 1.745740669421566678E-14, 0.5634999999999993348, 5.000000000000000000 ) ) ;
#83 = ORIENTED_EDGE ( 'NONE', *, *, #283, .T. ) ;
#84 = DIRECTION ( 'NONE',  ( -3.491481338843133355E-15, 1.224646799147352961E-16, -1.000000000000000000 ) ) ;
#85 = DIRECTION ( 'NONE',  ( 0.0000000000000000000, 1.000000000000000000, 0.0000000000000000000 ) ) ;
#86 = SHAPE_DEFINITION_REPRESENTATION ( #243, #213 ) ;
#87 = AXIS2_PLACEMENT_3D ( 'NONE', #130, #271, #148 ) ;
#88 = ADVANCED_FACE ( 'NONE', ( #13, #219 ), #269, .T. ) ;
#89 = PERSON_AND_ORGANIZATION ( #226, #32 ) ;
#90 = CARTESIAN_POINT ( 'NONE',  ( 4.311035480981395782E-14, 0.5103844939755798338, 12.34729635533384595 ) ) ;
#91 = PERSON_AND_ORGANIZATION ( #226, #32 ) ;
#92 = AXIS2_PLACEMENT_3D ( 'NONE', #239, #122, #150 ) ;
#93 = EDGE_CURVE ( 'NONE', #107, #107, #133, .T. ) ;
#94 =( NAMED_UNIT ( * ) PLANE_ANGLE_UNIT ( ) SI_UNIT ( $, .RADIAN. ) );
#95 = ORIENTED_EDGE ( 'NONE', *, *, #48, .T. ) ;
#96 = ADVANCED_FACE ( 'NONE', ( #222, #16 ), #108, .T. ) ;
#97 = CIRCLE ( 'NONE', #254, 1.499999999999997558 ) ;
#98 = ORIENTED_EDGE ( 'NONE', *, *, #279, .T. ) ;
#99 = EDGE_LOOP ( 'NONE', ( #6 ) ) ;
#100 = PLANE ( 'NONE',  #65 ) ;
#101 = CIRCLE ( 'NONE', #109, 0.4191624327025950114 ) ;
#102 = CARTESIAN_POINT ( 'NONE',  ( 1.326762908760390423E-13, -4.653657836759941152E-15, 38.00000000000000000 ) ) ;
#103 = DIRECTION ( 'NONE',  ( 0.0000000000000000000, -1.000000000000000000, 0.0000000000000000000 ) ) ;
#104 = CARTESIAN_POINT ( 'NONE',  ( 1.326762908760390423E-13, -4.653657836759941152E-15, 38.00000000000000000 ) ) ;
#105 = DIRECTION ( 'NONE',  ( -3.491481338843133355E-15, 1.224646799147352961E-16, -1.000000000000000000 ) ) ;
#106 = ADVANCED_FACE ( 'NONE', ( #76 ), #172, .F. ) ;
#107 = VERTEX_POINT ( 'NONE', #82 ) ;
#108 = CYLINDRICAL_SURFACE ( 'NONE', #92, 0.4799999999999996492 ) ;
#109 = AXIS2_PLACEMENT_3D ( 'NONE', #273, #64, #225 ) ;
#110 = DIRECTION ( 'NONE',  ( -3.491481338843133355E-15, 1.224646799147352961E-16, -1.000000000000000000 ) ) ;
#111 = SECURITY_CLASSIFICATION ( '', '', #163 ) ;
#112 = DIRECTION ( 'NONE',  ( 4.275831445896957731E-31, 1.000000000000000000, 1.224646799147353207E-16 ) ) ;
#113 = LOCAL_TIME ( 15, 49, 32.00000000000000000, #260 ) ;
#114 = CC_DESIGN_APPROVAL ( #149, ( #111 ) ) ;
#115 =( NAMED_UNIT ( * ) SI_UNIT ( $, .STERADIAN. ) SOLID_ANGLE_UNIT ( ) );
#116 = DATE_AND_TIME ( #168, #207 ) ;
#117 = CLOSED_SHELL ( 'NONE', ( #1, #118, #96, #241, #88, #166, #300, #106 ) ) ;
#118 = ADVANCED_FACE ( 'NONE', ( #223, #252 ), #285, .T. ) ;
#119 = ORIENTED_EDGE ( 'NONE', *, *, #181, .F. ) ;
#120 = AXIS2_PLACEMENT_3D ( 'NONE', #38, #17, #85 ) ;
#121 = ORIENTED_EDGE ( 'NONE', *, *, #296, .T. ) ;
#122 = DIRECTION ( 'NONE',  ( -3.491481338843133355E-15, 1.224646799147352961E-16, -1.000000000000000000 ) ) ;
#123 = ORIENTED_EDGE ( 'NONE', *, *, #283, .F. ) ;
#124 = FACE_OUTER_BOUND ( 'NONE', #250, .T. ) ;
#125 = DIRECTION ( 'NONE',  ( 0.0000000000000000000, 1.000000000000000000, 0.0000000000000000000 ) ) ;
#126 = CIRCLE ( 'NONE', #211, 0.5103844939755813881 ) ;
#127 = COORDINATED_UNIVERSAL_TIME_OFFSET ( 1, 0, .AHEAD. ) ;
#128 = DIRECTION ( 'NONE',  ( -3.491481338843133355E-15, 1.224646799147352961E-16, -1.000000000000000000 ) ) ;
#129 = PRODUCT_RELATED_PRODUCT_CATEGORY ( 'detail', '', ( #249 ) ) ;
#130 = CARTESIAN_POINT ( 'NONE',  ( 1.796236652077401126E-14, -6.300350060603827763E-16, 5.144626242432003949 ) ) ;
#131 = APPROVAL_DATE_TIME ( #197, #18 ) ;
#132 = CARTESIAN_POINT ( 'NONE',  ( 1.326762908760390423E-13, 8.998558695971099120E-33, 38.00000000000000000 ) ) ;
#133 = CIRCLE ( 'NONE', #188, 0.5635000000000000009 ) ;
#134 = FACE_OUTER_BOUND ( 'NONE', #200, .T. ) ;
#135 = DATE_AND_TIME ( #69, #235 ) ;
#136 = CARTESIAN_POINT ( 'NONE',  ( 8.728703347107833388E-16, 0.5634999999999993348, 0.2500000000000000000 ) ) ;
#137 = DIRECTION ( 'NONE',  ( 0.0000000000000000000, 0.0000000000000000000, 1.000000000000000000 ) ) ;
#138 = AXIS2_PLACEMENT_3D ( 'NONE', #245, #128, #206 ) ;
#139 = APPROVAL_PERSON_ORGANIZATION ( #295, #149, #43 ) ;
#140 = PERSON_AND_ORGANIZATION_ROLE ( 'design_owner' ) ;
#141 = PERSON_AND_ORGANIZATION_ROLE ( 'creator' ) ;
#142 = CARTESIAN_POINT ( 'NONE',  ( -1.892735826383161575E-31, 0.4191624327025950114, -5.421010862427522170E-17 ) ) ;
#143 = EDGE_LOOP ( 'NONE', ( #51 ) ) ;
#144 = PRODUCT_DEFINITION ( 'UNKNOWN', '', #282, #29 ) ;
#145 = EDGE_LOOP ( 'NONE', ( #73 ) ) ;
#146 = MANIFOLD_SOLID_BREP ( 'Corps-Déplacer/Copier1[2]', #218 ) ;
#147 = AXIS2_PLACEMENT_3D ( 'NONE', #104, #248, #195 ) ;
#148 = DIRECTION ( 'NONE',  ( 0.0000000000000000000, 1.000000000000000000, 0.0000000000000000000 ) ) ;
#149 = APPROVAL ( #182, 'UNSPECIFIED' ) ;
#150 = DIRECTION ( 'NONE',  ( 4.275831445896957731E-31, 1.000000000000000000, 1.224646799147352961E-16 ) ) ;
#151 = DIRECTION ( 'NONE',  ( -4.275831445896957731E-31, -1.000000000000000000, -1.224646799147352961E-16 ) ) ;
#152 = FACE_OUTER_BOUND ( 'NONE', #261, .T. ) ;
#153 = MANIFOLD_SOLID_BREP ( 'Corps-Déplacer/Copier1[1]', #117 ) ;
#154 = CARTESIAN_POINT ( 'NONE',  ( 1.745740669421566678E-14, 4.225573187649772370E-33, 5.000000000000000000 ) ) ;
#155 = EDGE_CURVE ( 'NONE', #42, #42, #126, .T. ) ;
#156 = CARTESIAN_POINT ( 'NONE',  ( 6.270590427156639929E-14, -2.199427048327245363E-15, 17.95968478306212646 ) ) ;
#157 = APPROVAL_PERSON_ORGANIZATION ( #187, #18, #244 ) ;
#158 = CARTESIAN_POINT ( 'NONE',  ( 1.796236652077401126E-14, 0.4799999999999984834, 5.144626242432003949 ) ) ;
#159 = EDGE_LOOP ( 'NONE', ( #186 ) ) ;
#160 = FACE_OUTER_BOUND ( 'NONE', #99, .T. ) ;
#161 = DIRECTION ( 'NONE',  ( -3.491481338843133355E-15, 1.224646799147352961E-16, -1.000000000000000000 ) ) ;
#162 = CARTESIAN_POINT ( 'NONE',  ( 4.311035480981395782E-14, -1.512107695968337265E-15, 12.34729635533384595 ) ) ;
#163 = SECURITY_CLASSIFICATION_LEVEL ( 'unclassified' ) ;
#164 = APPROVAL ( #184, 'UNSPECIFIED' ) ;
#165 = VERTEX_POINT ( 'NONE', #183 ) ;
#166 = ADVANCED_FACE ( 'NONE', ( #124, #8 ), #179, .T. ) ;
#167 = APPROVAL_DATE_TIME ( #135, #149 ) ;
#168 = CALENDAR_DATE ( 2021, 29, 11 ) ;
#169 = AXIS2_PLACEMENT_3D ( 'NONE', #204, #30, #33 ) ;
#170 = EDGE_LOOP ( 'NONE', ( #236 ) ) ;
#171 = CALENDAR_DATE ( 2021, 29, 11 ) ;
#172 = PLANE ( 'NONE',  #180 ) ;
#173 = EDGE_LOOP ( 'NONE', ( #202 ) ) ;
#174 = CARTESIAN_POINT ( 'NONE',  ( 6.270590427156639929E-14, 1.499999999999995559, 17.95968478306212646 ) ) ;
#175 = FACE_BOUND ( 'NONE', #28, .T. ) ;
#176 = CARTESIAN_POINT ( 'NONE',  ( 4.189777606611760026E-14, -1.301042606982605321E-15, 12.00000000000000000 ) ) ;
#177 = DIRECTION ( 'NONE',  ( 0.0000000000000000000, 1.000000000000000000, 0.0000000000000000000 ) ) ;
#178 = DIRECTION ( 'NONE',  ( -3.491481338843133355E-15, 1.224646799147352961E-16, -1.000000000000000000 ) ) ;
#179 = CYLINDRICAL_SURFACE ( 'NONE', #193, 1.500000000000000444 ) ;
#180 = AXIS2_PLACEMENT_3D ( 'NONE', #132, #161, #62 ) ;
#181 = EDGE_CURVE ( 'NONE', #67, #67, #7, .T. ) ;
#182 = APPROVAL_STATUS ( 'not_yet_approved' ) ;
#183 = CARTESIAN_POINT ( 'NONE',  ( 1.326762908760390423E-13, 1.199999999999998845, 38.00000000000000000 ) ) ;
#184 = APPROVAL_STATUS ( 'not_yet_approved' ) ;
#185 =( GEOMETRIC_REPRESENTATION_CONTEXT ( 3 ) GLOBAL_UNCERTAINTY_ASSIGNED_CONTEXT ( ( #198 ) ) GLOBAL_UNIT_ASSIGNED_CONTEXT ( ( #228, #94, #115 ) ) REPRESENTATION_CONTEXT ( 'NONE', 'WORKASPACE' ) );
#186 = ORIENTED_EDGE ( 'NONE', *, *, #93, .T. ) ;
#187 = PERSON_AND_ORGANIZATION ( #226, #32 ) ;
#188 = AXIS2_PLACEMENT_3D ( 'NONE', #196, #105, #177 ) ;
#189 = ORIENTED_EDGE ( 'NONE', *, *, #93, .F. ) ;
#190 = APPROVAL_STATUS ( 'not_yet_approved' ) ;
#191 = CARTESIAN_POINT ( 'NONE',  ( 1.745740669421566678E-14, 4.225573187649772370E-33, 5.000000000000000000 ) ) ;
#192 = APPLICATION_CONTEXT ( 'configuration controlled 3d designs of mechanical parts and assemblies' ) ;
#193 = AXIS2_PLACEMENT_3D ( 'NONE', #253, #84, #112 ) ;
#194 = ORIENTED_EDGE ( 'NONE', *, *, #75, .F. ) ;
#195 = DIRECTION ( 'NONE',  ( 0.0000000000000000000, 1.000000000000000000, 0.0000000000000000000 ) ) ;
#196 = CARTESIAN_POINT ( 'NONE',  ( 1.745740669421566678E-14, -6.123233995736765296E-16, 5.000000000000000000 ) ) ;
#197 = DATE_AND_TIME ( #11, #19 ) ;
#198 = UNCERTAINTY_MEASURE_WITH_UNIT (LENGTH_MEASURE( 1.000000000000000082E-05 ), #228, 'distance_accuracy_value', 'NONE');
#199 = CARTESIAN_POINT ( 'NONE',  ( 8.728703347107831416E-16, -3.061616997868381785E-17, 0.2499999999999999445 ) ) ;
#200 = EDGE_LOOP ( 'NONE', ( #49 ) ) ;
#201 = DIRECTION ( 'NONE',  ( 0.0000000000000000000, 1.000000000000000000, 0.0000000000000000000 ) ) ;
#202 = ORIENTED_EDGE ( 'NONE', *, *, #214, .F. ) ;
#203 = AXIS2_PLACEMENT_3D ( 'NONE', #37, #178, #56 ) ;
#204 = CARTESIAN_POINT ( 'NONE',  ( 1.316288464743861212E-13, -4.616918432785520292E-15, 37.69999999999999574 ) ) ;
#205 = CC_DESIGN_DATE_AND_TIME_ASSIGNMENT ( #298, #66, ( #111 ) ) ;
#206 = DIRECTION ( 'NONE',  ( 0.0000000000000000000, 1.000000000000000000, 0.0000000000000000000 ) ) ;
#207 = LOCAL_TIME ( 15, 49, 32.00000000000000000, #70 ) ;
#208 = PERSON_AND_ORGANIZATION_ROLE ( 'classification_officer' ) ;
#209 = PERSON_AND_ORGANIZATION ( #226, #32 ) ;
#210 = PERSON_AND_ORGANIZATION_ROLE ( 'design_supplier' ) ;
#211 = AXIS2_PLACEMENT_3D ( 'NONE', #162, #110, #201 ) ;
#212 = EDGE_LOOP ( 'NONE', ( #78 ) ) ;
#213 = ADVANCED_BREP_SHAPE_REPRESENTATION ( '951598', ( #153, #146, #52 ), #185 ) ;
#214 = EDGE_CURVE ( 'NONE', #275, #275, #234, .T. ) ;
#215 = AXIS2_PLACEMENT_3D ( 'NONE', #36, #55, #267 ) ;
#216 = ORIENTED_EDGE ( 'NONE', *, *, #63, .F. ) ;
#217 = FACE_BOUND ( 'NONE', #22, .T. ) ;
#218 = CLOSED_SHELL ( 'NONE', ( #68, #50, #270, #256 ) ) ;
#219 = FACE_OUTER_BOUND ( 'NONE', #233, .T. ) ;
#220 = DIRECTION ( 'NONE',  ( 3.417799368921451995E-31, 1.000000000000000000, 9.620249977688604745E-17 ) ) ;
#221 = DIRECTION ( 'NONE',  ( -3.491481338843133355E-15, 1.224646799147352961E-16, -1.000000000000000000 ) ) ;
#222 = FACE_OUTER_BOUND ( 'NONE', #60, .T. ) ;
#223 = FACE_OUTER_BOUND ( 'NONE', #47, .T. ) ;
#224 = APPROVAL_PERSON_ORGANIZATION ( #278, #164, #281 ) ;
#225 = DIRECTION ( 'NONE',  ( 4.275831445896957731E-31, 1.000000000000000000, 1.224646799147352961E-16 ) ) ;
#226 = PERSON ( 'UNSPECIFIED', 'UNSPECIFIED', 'UNSPECIFIED', ('UNSPECIFIED'), ('UNSPECIFIED'), ('UNSPECIFIED') ) ;
#227 = COORDINATED_UNIVERSAL_TIME_OFFSET ( 1, 0, .AHEAD. ) ;
#228 =( LENGTH_UNIT ( ) NAMED_UNIT ( * ) SI_UNIT ( .MILLI., .METRE. ) );
#229 = CC_DESIGN_APPROVAL ( #18, ( #282 ) ) ;
#230 = DIRECTION ( 'NONE',  ( 1.000000000000000000, 0.0000000000000000000, 0.0000000000000000000 ) ) ;
#231 = CARTESIAN_POINT ( 'NONE',  ( 1.316288464743861212E-13, 1.499999999999998668, 37.69999999999999574 ) ) ;
#232 = CC_DESIGN_PERSON_AND_ORGANIZATION_ASSIGNMENT ( #89, #210, ( #282 ) ) ;
#233 = EDGE_LOOP ( 'NONE', ( #95 ) ) ;
#234 = CIRCLE ( 'NONE', #169, 1.500000000000003331 ) ;
#235 = LOCAL_TIME ( 15, 49, 32.00000000000000000, #277 ) ;
#236 = ORIENTED_EDGE ( 'NONE', *, *, #75, .T. ) ;
#237 = AXIS2_PLACEMENT_3D ( 'NONE', #102, #35, #79 ) ;
#238 = CC_DESIGN_SECURITY_CLASSIFICATION ( #111, ( #282 ) ) ;
#239 = CARTESIAN_POINT ( 'NONE',  ( 0.0000000000000000000, 0.0000000000000000000, 0.0000000000000000000 ) ) ;
#240 = FACE_OUTER_BOUND ( 'NONE', #170, .T. ) ;
#241 = ADVANCED_FACE ( 'NONE', ( #290, #134 ), #71, .F. ) ;
#242 = CARTESIAN_POINT ( 'NONE',  ( -1.842501868535792297E-31, 6.462626595257744484E-33, -5.277135088874015214E-17 ) ) ;
#243 = PRODUCT_DEFINITION_SHAPE ( 'NONE', 'NONE',  #144 ) ;
#244 = APPROVAL_ROLE ( '' ) ;
#245 = CARTESIAN_POINT ( 'NONE',  ( 4.189777606611760026E-14, -1.469576158976823750E-15, 12.00000000000000000 ) ) ;
#246 = CC_DESIGN_APPROVAL ( #164, ( #144 ) ) ;
#247 = DIRECTION ( 'NONE',  ( -4.275831445896957731E-31, -1.000000000000000000, -1.224646799147352961E-16 ) ) ;
#248 = DIRECTION ( 'NONE',  ( -3.491481338843133355E-15, 1.224646799147352961E-16, -1.000000000000000000 ) ) ;
#249 = PRODUCT ( '951598', '951598', '', ( #20 ) ) ;
#250 = EDGE_LOOP ( 'NONE', ( #265 ) ) ;
#251 = CC_DESIGN_PERSON_AND_ORGANIZATION_ASSIGNMENT ( #255, #208, ( #111 ) ) ;
#252 = FACE_BOUND ( 'NONE', #143, .T. ) ;
#253 = CARTESIAN_POINT ( 'NONE',  ( 0.0000000000000000000, 0.0000000000000000000, 0.0000000000000000000 ) ) ;
#254 = AXIS2_PLACEMENT_3D ( 'NONE', #156, #284, #31 ) ;
#255 = PERSON_AND_ORGANIZATION ( #226, #32 ) ;
#256 = ADVANCED_FACE ( 'NONE', ( #77 ), #266, .T. ) ;
#257 = AXIS2_PLACEMENT_3D ( 'NONE', #54, #9, #103 ) ;
#258 = APPROVAL_DATE_TIME ( #116, #164 ) ;
#259 = CC_DESIGN_PERSON_AND_ORGANIZATION_ASSIGNMENT ( #297, #141, ( #282 ) ) ;
#260 = COORDINATED_UNIVERSAL_TIME_OFFSET ( 1, 0, .AHEAD. ) ;
#261 = EDGE_LOOP ( 'NONE', ( #83 ) ) ;
#262 = AXIS2_PLACEMENT_3D ( 'NONE', #191, #291, #80 ) ;
#263 = CONICAL_SURFACE ( 'NONE', #215, 0.5634999999999993348, 0.5235987755982924874 ) ;
#264 = PLANE ( 'NONE',  #262 ) ;
#265 = ORIENTED_EDGE ( 'NONE', *, *, #48, .F. ) ;
#266 = PLANE ( 'NONE',  #81 ) ;
#267 = DIRECTION ( 'NONE',  ( -3.417799368921451995E-31, -1.000000000000000000, -9.620249977688604745E-17 ) ) ;
#268 = VERTEX_POINT ( 'NONE', #158 ) ;
#269 = CONICAL_SURFACE ( 'NONE', #257, 1.499999999999997558, 0.1745329251994260367 ) ;
#270 = ADVANCED_FACE ( 'NONE', ( #160, #240 ), #59, .T. ) ;
#271 = DIRECTION ( 'NONE',  ( -3.491481338843133355E-15, 1.224646799147352961E-16, -1.000000000000000000 ) ) ;
#272 = DIRECTION ( 'NONE',  ( -3.491481338843133355E-15, 1.224646799147352961E-16, -1.000000000000000000 ) ) ;
#273 = CARTESIAN_POINT ( 'NONE',  ( -3.685003737071584594E-31, 1.292525319051548897E-32, -1.055427017774803043E-16 ) ) ;
#274 = CONICAL_SURFACE ( 'NONE', #147, 1.200000000000003286, 0.7853981633974453924 ) ;
#275 = VERTEX_POINT ( 'NONE', #231 ) ;
#276 = APPLICATION_PROTOCOL_DEFINITION ( 'international standard', 'config_control_design', 1994, #192 ) ;
#277 = COORDINATED_UNIVERSAL_TIME_OFFSET ( 1, 0, .AHEAD. ) ;
#278 = PERSON_AND_ORGANIZATION ( #226, #32 ) ;
#279 = EDGE_CURVE ( 'NONE', #165, #165, #26, .T. ) ;
#280 = AXIS2_PLACEMENT_3D ( 'NONE', #199, #40, #220 ) ;
#281 = APPROVAL_ROLE ( '' ) ;
#282 = PRODUCT_DEFINITION_FORMATION_WITH_SPECIFIED_SOURCE ( 'ANY', '', #249, .NOT_KNOWN. ) ;
#283 = EDGE_CURVE ( 'NONE', #301, #301, #101, .T. ) ;
#284 = DIRECTION ( 'NONE',  ( -3.491481338843133355E-15, 1.224646799147352961E-16, -1.000000000000000000 ) ) ;
#285 = CONICAL_SURFACE ( 'NONE', #120, 0.4799999999999991496, 0.5235987755982941527 ) ;
#286 = EDGE_LOOP ( 'NONE', ( #194 ) ) ;
#287 = VERTEX_POINT ( 'NONE', #174 ) ;
#288 = FACE_OUTER_BOUND ( 'NONE', #303, .T. ) ;
#289 = CC_DESIGN_PERSON_AND_ORGANIZATION_ASSIGNMENT ( #209, #140, ( #249 ) ) ;
#290 = FACE_OUTER_BOUND ( 'NONE', #25, .T. ) ;
#291 = DIRECTION ( 'NONE',  ( 3.491481338843133355E-15, -1.224646799147352961E-16, 1.000000000000000000 ) ) ;
#292 = VERTEX_POINT ( 'NONE', #14 ) ;
#293 = FACE_OUTER_BOUND ( 'NONE', #159, .T. ) ;
#294 = DIRECTION ( 'NONE',  ( 3.491481338843133355E-15, -1.224646799147352961E-16, 1.000000000000000000 ) ) ;
#295 = PERSON_AND_ORGANIZATION ( #226, #32 ) ;
#296 = EDGE_CURVE ( 'NONE', #302, #302, #58, .T. ) ;
#297 = PERSON_AND_ORGANIZATION ( #226, #32 ) ;
#298 = DATE_AND_TIME ( #41, #53 ) ;
#299 = APPLICATION_PROTOCOL_DEFINITION ( 'international standard', 'config_control_design', 1994, #15 ) ;
#300 = ADVANCED_FACE ( 'NONE', ( #12, #217 ), #274, .T. ) ;
#301 = VERTEX_POINT ( 'NONE', #142 ) ;
#302 = VERTEX_POINT ( 'NONE', #136 ) ;
#303 = EDGE_LOOP ( 'NONE', ( #121 ) ) ;
ENDSEC;
END-ISO-10303-21;
