ISO-10303-21;
HEADER;
FILE_DESCRIPTION (( 'STEP AP203' ),
    '1' );
FILE_NAME ('951529.step',
    '2021-11-29T14:49:31',
    ( '' ),
    ( '' ),
    'SwSTEP 2.0',
    'SolidWorks 2019',
    '' );
FILE_SCHEMA (( 'CONFIG_CONTROL_DESIGN' ));
ENDSEC;

DATA;
#1 = EDGE_LOOP ( 'NONE', ( #289 ) ) ;
#2 = EDGE_LOOP ( 'NONE', ( #27 ) ) ;
#3 = EDGE_LOOP ( 'NONE', ( #19 ) ) ;
#4 = FACE_OUTER_BOUND ( 'NONE', #114, .T. ) ;
#5 = EDGE_LOOP ( 'NONE', ( #303 ) ) ;
#6 = AXIS2_PLACEMENT_3D ( 'NONE', #9, #103, #105 ) ;
#7 = PLANE ( 'NONE',  #255 ) ;
#8 = EDGE_LOOP ( 'NONE', ( #68 ) ) ;
#9 = CARTESIAN_POINT ( 'NONE',  ( 1.316288464743861212E-13, -4.616918432785520292E-15, 37.69999999999999574 ) ) ;
#10 = MANIFOLD_SOLID_BREP ( 'Corps-Déplacer/Copier1[1]', #206 ) ;
#11 = CARTESIAN_POINT ( 'NONE',  ( 1.745740669421566678E-14, 4.188079193083224972E-33, 5.000000000000000000 ) ) ;
#12 = DIRECTION ( 'NONE',  ( 4.275831445896957731E-31, 1.000000000000000000, 1.224646799147352961E-16 ) ) ;
#13 = PERSON ( 'UNSPECIFIED', 'UNSPECIFIED', 'UNSPECIFIED', ('UNSPECIFIED'), ('UNSPECIFIED'), ('UNSPECIFIED') ) ;
#14 = CIRCLE ( 'NONE', #260, 0.4749999999999990896 ) ;
#15 = DIRECTION ( 'NONE',  ( 1.000000000000000000, 0.0000000000000000000, 0.0000000000000000000 ) ) ;
#16 = ADVANCED_FACE ( 'NONE', ( #185 ), #284, .F. ) ;
#17 = APPROVAL_ROLE ( '' ) ;
#18 = CONICAL_SURFACE ( 'NONE', #249, 0.4749999999999990896, 0.5235987755982938197 ) ;
#19 = ORIENTED_EDGE ( 'NONE', *, *, #69, .T. ) ;
#20 = CIRCLE ( 'NONE', #6, 1.500000000000003331 ) ;
#21 = EDGE_LOOP ( 'NONE', ( #122 ) ) ;
#22 = ORIENTED_EDGE ( 'NONE', *, *, #160, .F. ) ;
#23 = DIRECTION ( 'NONE',  ( 0.0000000000000000000, 1.000000000000000000, 0.0000000000000000000 ) ) ;
#24 = DIRECTION ( 'NONE',  ( -3.491481338843133355E-15, 1.224646799147352961E-16, -1.000000000000000000 ) ) ;
#25 = DESIGN_CONTEXT ( 'detailed design', #222, 'design' ) ;
#26 = FACE_OUTER_BOUND ( 'NONE', #230, .T. ) ;
#27 = ORIENTED_EDGE ( 'NONE', *, *, #109, .F. ) ;
#28 = DIRECTION ( 'NONE',  ( -3.448397393710364403E-31, -1.000000000000000000, -9.706375760837116696E-17 ) ) ;
#29 = CARTESIAN_POINT ( 'NONE',  ( 4.189777606611760026E-14, -1.301042606982605321E-15, 12.00000000000000000 ) ) ;
#30 = DIRECTION ( 'NONE',  ( -3.491481338843133355E-15, 1.224646799147352961E-16, -1.000000000000000000 ) ) ;
#31 = PRODUCT_DEFINITION ( 'UNKNOWN', '', #217, #25 ) ;
#32 = CARTESIAN_POINT ( 'NONE',  ( 6.280491014476898362E-14, -2.202899706890974546E-15, 17.98804119216021746 ) ) ;
#33 = CYLINDRICAL_SURFACE ( 'NONE', #187, 1.500000000000000444 ) ;
#34 = CARTESIAN_POINT ( 'NONE',  ( 0.0000000000000000000, 0.0000000000000000000, 0.0000000000000000000 ) ) ;
#35 = DIRECTION ( 'NONE',  ( -4.275831445896957731E-31, -1.000000000000000000, -1.224646799147352961E-16 ) ) ;
#36 = PERSON_AND_ORGANIZATION ( #13, #146 ) ;
#37 = CARTESIAN_POINT ( 'NONE',  ( 6.280491014476898362E-14, 1.499999999999995559, 17.98804119216021746 ) ) ;
#38 = CONICAL_SURFACE ( 'NONE', #74, 0.5584999999999992193, 0.5235987755982922653 ) ;
#39 = CC_DESIGN_PERSON_AND_ORGANIZATION_ASSIGNMENT ( #252, #112, ( #63 ) ) ;
#40 = CARTESIAN_POINT ( 'NONE',  ( -1.892735826383161356E-31, 0.4141624327025949515, -5.421010862427521554E-17 ) ) ;
#41 = EDGE_CURVE ( 'NONE', #218, #218, #82, .T. ) ;
#42 = CALENDAR_DATE ( 2021, 29, 11 ) ;
#43 = ORIENTED_EDGE ( 'NONE', *, *, #209, .T. ) ;
#44 = EDGE_LOOP ( 'NONE', ( #93 ) ) ;
#45 = DIRECTION ( 'NONE',  ( -3.491481338843133355E-15, 1.224646799147352961E-16, -1.000000000000000000 ) ) ;
#46 = ADVANCED_FACE ( 'NONE', ( #235, #242 ), #140, .T. ) ;
#47 = CARTESIAN_POINT ( 'NONE',  ( 4.311035480981395782E-14, 0.5053844939755784971, 12.34729635533384595 ) ) ;
#48 = EDGE_LOOP ( 'NONE', ( #147 ) ) ;
#49 = CARTESIAN_POINT ( 'NONE',  ( 1.326762908760390423E-13, -4.653657836759941152E-15, 38.00000000000000000 ) ) ;
#50 = DIRECTION ( 'NONE',  ( -3.491481338843133355E-15, 1.224646799147352961E-16, -1.000000000000000000 ) ) ;
#51 = EDGE_LOOP ( 'NONE', ( #207 ) ) ;
#52 = AXIS2_PLACEMENT_3D ( 'NONE', #265, #24, #194 ) ;
#53 = DIRECTION ( 'NONE',  ( -3.491481338843133355E-15, 1.224646799147352961E-16, -1.000000000000000000 ) ) ;
#54 = CYLINDRICAL_SURFACE ( 'NONE', #107, 0.5584999999999995524 ) ;
#55 = CARTESIAN_POINT ( 'NONE',  ( 1.745740669421566678E-14, 4.188079193083224972E-33, 5.000000000000000000 ) ) ;
#56 = COORDINATED_UNIVERSAL_TIME_OFFSET ( 1, 0, .AHEAD. ) ;
#57 = ADVANCED_FACE ( 'NONE', ( #119, #184 ), #133, .T. ) ;
#58 = APPLICATION_PROTOCOL_DEFINITION ( 'international standard', 'config_control_design', 1994, #60 ) ;
#59 = CIRCLE ( 'NONE', #111, 0.4141624327025949515 ) ;
#60 = APPLICATION_CONTEXT ( 'configuration controlled 3d designs of mechanical parts and assemblies' ) ;
#61 = APPLICATION_PROTOCOL_DEFINITION ( 'international standard', 'config_control_design', 1994, #222 ) ;
#62 = APPROVAL ( #178, 'UNSPECIFIED' ) ;
#63 = SECURITY_CLASSIFICATION ( '', '', #154 ) ;
#64 = APPROVAL_DATE_TIME ( #279, #62 ) ;
#65 = AXIS2_PLACEMENT_3D ( 'NONE', #290, #262, #268 ) ;
#66 = EDGE_LOOP ( 'NONE', ( #254 ) ) ;
#67 = CC_DESIGN_SECURITY_CLASSIFICATION ( #63, ( #217 ) ) ;
#68 = ORIENTED_EDGE ( 'NONE', *, *, #96, .F. ) ;
#69 = EDGE_CURVE ( 'NONE', #101, #101, #176, .T. ) ;
#70 = AXIS2_PLACEMENT_3D ( 'NONE', #11, #191, #164 ) ;
#71 = PRODUCT_DEFINITION_SHAPE ( 'NONE', 'NONE',  #31 ) ;
#72 = ORIENTED_EDGE ( 'NONE', *, *, #209, .F. ) ;
#73 = DIRECTION ( 'NONE',  ( -3.491481338843133355E-15, 1.224646799147352961E-16, -1.000000000000000000 ) ) ;
#74 = AXIS2_PLACEMENT_3D ( 'NONE', #77, #212, #28 ) ;
#75 = DIRECTION ( 'NONE',  ( -3.491481338843133355E-15, 1.224646799147352961E-16, -1.000000000000000000 ) ) ;
#76 = DIRECTION ( 'NONE',  ( 3.448397393710364403E-31, 1.000000000000000000, 9.706375760837116696E-17 ) ) ;
#77 = CARTESIAN_POINT ( 'NONE',  ( 8.728703347107831416E-16, -3.061616997868381785E-17, 0.2499999999999999445 ) ) ;
#78 = DIRECTION ( 'NONE',  ( -3.491481338843133355E-15, 1.224646799147352961E-16, -1.000000000000000000 ) ) ;
#79 = APPROVAL_PERSON_ORGANIZATION ( #128, #156, #17 ) ;
#80 = FACE_OUTER_BOUND ( 'NONE', #3, .T. ) ;
#81 = DIRECTION ( 'NONE',  ( -3.491481338843133355E-15, 1.224646799147352961E-16, -1.000000000000000000 ) ) ;
#82 = CIRCLE ( 'NONE', #293, 0.5584999999999998854 ) ;
#83 = DIRECTION ( 'NONE',  ( -4.275831445896957731E-31, -1.000000000000000000, -1.224646799147352961E-16 ) ) ;
#84 = DATE_AND_TIME ( #297, #245 ) ;
#85 = CARTESIAN_POINT ( 'NONE',  ( 1.745740669421566678E-14, 0.5584999999999992193, 5.000000000000000000 ) ) ;
#86 = PERSON_AND_ORGANIZATION ( #13, #146 ) ;
#87 = PERSON_AND_ORGANIZATION ( #13, #146 ) ;
#88 = AXIS2_PLACEMENT_3D ( 'NONE', #49, #239, #170 ) ;
#89 = CC_DESIGN_PERSON_AND_ORGANIZATION_ASSIGNMENT ( #159, #271, ( #31 ) ) ;
#90 = CALENDAR_DATE ( 2021, 29, 11 ) ;
#91 = CIRCLE ( 'NONE', #139, 1.499999999999997558 ) ;
#92 = ADVANCED_FACE ( 'NONE', ( #169, #263 ), #94, .F. ) ;
#93 = ORIENTED_EDGE ( 'NONE', *, *, #96, .T. ) ;
#94 = TOROIDAL_SURFACE ( 'NONE', #153, 2.474999999999999645, 2.000000000000000888 ) ;
#95 = PRODUCT ( '951529', '951529', '', ( #278 ) ) ;
#96 = EDGE_CURVE ( 'NONE', #198, #198, #266, .T. ) ;
#97 = DIRECTION ( 'NONE',  ( 0.0000000000000000000, -1.000000000000000000, 0.0000000000000000000 ) ) ;
#98 = LOCAL_TIME ( 15, 49, 31.00000000000000000, #300 ) ;
#99 = CARTESIAN_POINT ( 'NONE',  ( -3.663624579842099442E-31, 1.285026520138239280E-32, -1.049303783779066044E-16 ) ) ;
#100 = DIRECTION ( 'NONE',  ( -3.491481338843133355E-15, 1.224646799147352961E-16, -1.000000000000000000 ) ) ;
#101 = VERTEX_POINT ( 'NONE', #108 ) ;
#102 = DIRECTION ( 'NONE',  ( 0.0000000000000000000, 1.000000000000000000, 0.0000000000000000000 ) ) ;
#103 = DIRECTION ( 'NONE',  ( -3.491481338843133355E-15, 1.224646799147352961E-16, -1.000000000000000000 ) ) ;
#104 = DIRECTION ( 'NONE',  ( 3.491481338843133355E-15, -1.224646799147352961E-16, 1.000000000000000000 ) ) ;
#105 = DIRECTION ( 'NONE',  ( 0.0000000000000000000, 1.000000000000000000, 0.0000000000000000000 ) ) ;
#106 = AXIS2_PLACEMENT_3D ( 'NONE', #259, #78, #144 ) ;
#107 = AXIS2_PLACEMENT_3D ( 'NONE', #34, #126, #150 ) ;
#108 = CARTESIAN_POINT ( 'NONE',  ( 8.728703347107833388E-16, 0.5584999999999992193, 0.2500000000000000000 ) ) ;
#109 = EDGE_CURVE ( 'NONE', #121, #121, #196, .T. ) ;
#110 =( NAMED_UNIT ( * ) SI_UNIT ( $, .STERADIAN. ) SOLID_ANGLE_UNIT ( ) );
#111 = AXIS2_PLACEMENT_3D ( 'NONE', #99, #53, #12 ) ;
#112 = PERSON_AND_ORGANIZATION_ROLE ( 'classification_officer' ) ;
#113 = PERSON_AND_ORGANIZATION_ROLE ( 'design_owner' ) ;
#114 = EDGE_LOOP ( 'NONE', ( #161 ) ) ;
#115 = EDGE_CURVE ( 'NONE', #228, #228, #219, .T. ) ;
#116 = EDGE_LOOP ( 'NONE', ( #142 ) ) ;
#117 = CC_DESIGN_DATE_AND_TIME_ASSIGNMENT ( #158, #227, ( #63 ) ) ;
#118 = AXIS2_PLACEMENT_3D ( 'NONE', #283, #286, #76 ) ;
#119 = FACE_BOUND ( 'NONE', #8, .T. ) ;
#120 = DIRECTION ( 'NONE',  ( 0.0000000000000000000, 1.000000000000000000, 0.0000000000000000000 ) ) ;
#121 = VERTEX_POINT ( 'NONE', #210 ) ;
#122 = ORIENTED_EDGE ( 'NONE', *, *, #136, .T. ) ;
#123 = CC_DESIGN_APPROVAL ( #156, ( #63 ) ) ;
#124 = DIRECTION ( 'NONE',  ( -3.491481338843133355E-15, 1.224646799147352961E-16, -1.000000000000000000 ) ) ;
#125 = EDGE_LOOP ( 'NONE', ( #238 ) ) ;
#126 = DIRECTION ( 'NONE',  ( -3.491481338843133355E-15, 1.224646799147352961E-16, -1.000000000000000000 ) ) ;
#127 = DIRECTION ( 'NONE',  ( 4.275831445896957731E-31, 1.000000000000000000, 1.224646799147353207E-16 ) ) ;
#128 = PERSON_AND_ORGANIZATION ( #13, #146 ) ;
#129 = DIRECTION ( 'NONE',  ( 0.0000000000000000000, 0.0000000000000000000, 1.000000000000000000 ) ) ;
#130 = DATE_AND_TIME ( #277, #163 ) ;
#131 = PERSON_AND_ORGANIZATION ( #13, #146 ) ;
#132 = VERTEX_POINT ( 'NONE', #224 ) ;
#133 = CONICAL_SURFACE ( 'NONE', #280, 1.499999999999997558, 0.1745329251994261754 ) ;
#134 = APPROVAL_DATE_TIME ( #273, #156 ) ;
#135 = VERTEX_POINT ( 'NONE', #203 ) ;
#136 = EDGE_CURVE ( 'NONE', #248, #248, #91, .T. ) ;
#137 = APPROVAL_PERSON_ORGANIZATION ( #86, #247, #270 ) ;
#138 = CARTESIAN_POINT ( 'NONE',  ( 1.745740669421566678E-14, -6.123233995736765296E-16, 5.000000000000000000 ) ) ;
#139 = AXIS2_PLACEMENT_3D ( 'NONE', #291, #81, #120 ) ;
#140 = CYLINDRICAL_SURFACE ( 'NONE', #165, 0.4749999999999995337 ) ;
#141 = PLANE ( 'NONE',  #231 ) ;
#142 = ORIENTED_EDGE ( 'NONE', *, *, #136, .F. ) ;
#143 = FACE_OUTER_BOUND ( 'NONE', #261, .T. ) ;
#144 = DIRECTION ( 'NONE',  ( 0.0000000000000000000, 1.000000000000000000, 0.0000000000000000000 ) ) ;
#145 = DIRECTION ( 'NONE',  ( 0.0000000000000000000, 1.000000000000000000, 0.0000000000000000000 ) ) ;
#146 = ORGANIZATION ( 'UNSPECIFIED', 'UNSPECIFIED', '' ) ;
#147 = ORIENTED_EDGE ( 'NONE', *, *, #41, .T. ) ;
#148 = DIRECTION ( 'NONE',  ( 0.0000000000000000000, 1.000000000000000000, 0.0000000000000000000 ) ) ;
#149 = ADVANCED_FACE ( 'NONE', ( #216, #243 ), #54, .T. ) ;
#150 = DIRECTION ( 'NONE',  ( 4.275831445896957731E-31, 1.000000000000000000, 1.224646799147352961E-16 ) ) ;
#151 = DIRECTION ( 'NONE',  ( 3.491481338843133355E-15, -1.224646799147352961E-16, 1.000000000000000000 ) ) ;
#152 = COORDINATED_UNIVERSAL_TIME_OFFSET ( 1, 0, .AHEAD. ) ;
#153 = AXIS2_PLACEMENT_3D ( 'NONE', #29, #73, #215 ) ;
#154 = SECURITY_CLASSIFICATION_LEVEL ( 'unclassified' ) ;
#155 = VERTEX_POINT ( 'NONE', #40 ) ;
#156 = APPROVAL ( #299, 'UNSPECIFIED' ) ;
#157 =( LENGTH_UNIT ( ) NAMED_UNIT ( * ) SI_UNIT ( .MILLI., .METRE. ) );
#158 = DATE_AND_TIME ( #175, #234 ) ;
#159 = PERSON_AND_ORGANIZATION ( #13, #146 ) ;
#160 = EDGE_CURVE ( 'NONE', #180, #180, #225, .T. ) ;
#161 = ORIENTED_EDGE ( 'NONE', *, *, #115, .F. ) ;
#162 = ORIENTED_EDGE ( 'NONE', *, *, #160, .T. ) ;
#163 = LOCAL_TIME ( 15, 49, 31.00000000000000000, #152 ) ;
#164 = DIRECTION ( 'NONE',  ( -4.275831445896957731E-31, -1.000000000000000000, -1.224646799147352961E-16 ) ) ;
#165 = AXIS2_PLACEMENT_3D ( 'NONE', #211, #100, #240 ) ;
#166 = EDGE_LOOP ( 'NONE', ( #22 ) ) ;
#167 = CC_DESIGN_PERSON_AND_ORGANIZATION_ASSIGNMENT ( #296, #113, ( #95 ) ) ;
#168 = CARTESIAN_POINT ( 'NONE',  ( -1.831812289921049721E-31, 6.425132600691196402E-33, -5.246518918895330219E-17 ) ) ;
#169 = FACE_OUTER_BOUND ( 'NONE', #166, .T. ) ;
#170 = DIRECTION ( 'NONE',  ( 0.0000000000000000000, 1.000000000000000000, 0.0000000000000000000 ) ) ;
#171 = CARTESIAN_POINT ( 'NONE',  ( 1.745740669421566678E-14, -6.123233995736765296E-16, 5.000000000000000000 ) ) ;
#172 = EDGE_CURVE ( 'NONE', #135, #135, #14, .T. ) ;
#173 = FACE_OUTER_BOUND ( 'NONE', #2, .T. ) ;
#174 = FACE_OUTER_BOUND ( 'NONE', #1, .T. ) ;
#175 = CALENDAR_DATE ( 2021, 29, 11 ) ;
#176 = CIRCLE ( 'NONE', #118, 0.5584999999999992193 ) ;
#177 = ADVANCED_FACE ( 'NONE', ( #174, #237 ), #18, .T. ) ;
#178 = APPROVAL_STATUS ( 'not_yet_approved' ) ;
#179 = APPROVAL_STATUS ( 'not_yet_approved' ) ;
#180 = VERTEX_POINT ( 'NONE', #301 ) ;
#181 = AXIS2_PLACEMENT_3D ( 'NONE', #171, #45, #102 ) ;
#182 = ORIENTED_EDGE ( 'NONE', *, *, #69, .F. ) ;
#183 = APPROVAL_PERSON_ORGANIZATION ( #87, #62, #250 ) ;
#184 = FACE_OUTER_BOUND ( 'NONE', #21, .T. ) ;
#185 = FACE_OUTER_BOUND ( 'NONE', #48, .T. ) ;
#186 = FACE_BOUND ( 'NONE', #51, .T. ) ;
#187 = AXIS2_PLACEMENT_3D ( 'NONE', #193, #30, #127 ) ;
#188 = DIRECTION ( 'NONE',  ( -3.491481338843133355E-15, 1.224646799147352961E-16, -1.000000000000000000 ) ) ;
#189 = UNCERTAINTY_MEASURE_WITH_UNIT (LENGTH_MEASURE( 1.000000000000000082E-05 ), #157, 'distance_accuracy_value', 'NONE');
#190 = DIRECTION ( 'NONE',  ( 4.275831445896957731E-31, 1.000000000000000000, 1.224646799147352961E-16 ) ) ;
#191 = DIRECTION ( 'NONE',  ( 3.491481338843133355E-15, -1.224646799147352961E-16, 1.000000000000000000 ) ) ;
#192 = ADVANCED_FACE ( 'NONE', ( #288, #80 ), #38, .T. ) ;
#193 = CARTESIAN_POINT ( 'NONE',  ( 0.0000000000000000000, 0.0000000000000000000, 0.0000000000000000000 ) ) ;
#194 = DIRECTION ( 'NONE',  ( 0.0000000000000000000, 1.000000000000000000, 0.0000000000000000000 ) ) ;
#195 = CARTESIAN_POINT ( 'NONE',  ( 1.326762908760390423E-13, 8.998558695971099120E-33, 38.00000000000000000 ) ) ;
#196 = CIRCLE ( 'NONE', #181, 0.5584999999999998854 ) ;
#197 = COORDINATED_UNIVERSAL_TIME_OFFSET ( 1, 0, .AHEAD. ) ;
#198 = VERTEX_POINT ( 'NONE', #47 ) ;
#199 = ADVANCED_FACE ( 'NONE', ( #241, #26 ), #33, .T. ) ;
#200 = SHAPE_DEFINITION_REPRESENTATION ( #71, #233 ) ;
#201 =( GEOMETRIC_REPRESENTATION_CONTEXT ( 3 ) GLOBAL_UNCERTAINTY_ASSIGNED_CONTEXT ( ( #189 ) ) GLOBAL_UNIT_ASSIGNED_CONTEXT ( ( #157, #276, #110 ) ) REPRESENTATION_CONTEXT ( 'NONE', 'WORKASPACE' ) );
#202 = MANIFOLD_SOLID_BREP ( 'Corps-Déplacer/Copier1[2]', #251 ) ;
#203 = CARTESIAN_POINT ( 'NONE',  ( 1.796236652077401126E-14, 0.4749999999999984235, 5.144626242432003949 ) ) ;
#204 = LOCAL_TIME ( 15, 49, 31.00000000000000000, #275 ) ;
#205 = EDGE_LOOP ( 'NONE', ( #162 ) ) ;
#206 = CLOSED_SHELL ( 'NONE', ( #16, #177, #46, #92, #57, #199, #269, #220 ) ) ;
#207 = ORIENTED_EDGE ( 'NONE', *, *, #115, .T. ) ;
#208 = EDGE_CURVE ( 'NONE', #132, #132, #20, .T. ) ;
#209 = EDGE_CURVE ( 'NONE', #155, #155, #59, .T. ) ;
#210 = CARTESIAN_POINT ( 'NONE',  ( 1.745740669421566678E-14, 0.5584999999999992193, 5.000000000000000000 ) ) ;
#211 = CARTESIAN_POINT ( 'NONE',  ( 0.0000000000000000000, 0.0000000000000000000, 0.0000000000000000000 ) ) ;
#212 = DIRECTION ( 'NONE',  ( 3.491481338843133355E-15, -1.224646799147352961E-16, 1.000000000000000000 ) ) ;
#213 = CONICAL_SURFACE ( 'NONE', #88, 1.200000000000003286, 0.7853981633974453924 ) ;
#214 = CARTESIAN_POINT ( 'NONE',  ( 1.796236652077401126E-14, -6.300350060603827763E-16, 5.144626242432003949 ) ) ;
#215 = DIRECTION ( 'NONE',  ( 4.275831445896957731E-31, 1.000000000000000000, 1.224646799147352961E-16 ) ) ;
#216 = FACE_OUTER_BOUND ( 'NONE', #232, .T. ) ;
#217 = PRODUCT_DEFINITION_FORMATION_WITH_SPECIFIED_SOURCE ( 'ANY', '', #95, .NOT_KNOWN. ) ;
#218 = VERTEX_POINT ( 'NONE', #85 ) ;
#219 = CIRCLE ( 'NONE', #52, 1.200000000000003286 ) ;
#220 = ADVANCED_FACE ( 'NONE', ( #4 ), #141, .F. ) ;
#221 = PERSON_AND_ORGANIZATION_ROLE ( 'design_supplier' ) ;
#222 = APPLICATION_CONTEXT ( 'configuration controlled 3d designs of mechanical parts and assemblies' ) ;
#223 = PERSON_AND_ORGANIZATION_ROLE ( 'creator' ) ;
#224 = CARTESIAN_POINT ( 'NONE',  ( 1.316288464743861212E-13, 1.499999999999998668, 37.69999999999999574 ) ) ;
#225 = CIRCLE ( 'NONE', #65, 0.4749999999999998668 ) ;
#226 = ADVANCED_FACE ( 'NONE', ( #285 ), #292, .F. ) ;
#227 = DATE_TIME_ROLE ( 'classification_date' ) ;
#228 = VERTEX_POINT ( 'NONE', #298 ) ;
#229 = EDGE_LOOP ( 'NONE', ( #72 ) ) ;
#230 = EDGE_LOOP ( 'NONE', ( #267 ) ) ;
#231 = AXIS2_PLACEMENT_3D ( 'NONE', #195, #124, #190 ) ;
#232 = EDGE_LOOP ( 'NONE', ( #182 ) ) ;
#233 = ADVANCED_BREP_SHAPE_REPRESENTATION ( '951529', ( #10, #202, #282 ), #201 ) ;
#234 = LOCAL_TIME ( 15, 49, 31.00000000000000000, #197 ) ;
#235 = FACE_OUTER_BOUND ( 'NONE', #125, .T. ) ;
#236 = CC_DESIGN_PERSON_AND_ORGANIZATION_ASSIGNMENT ( #36, #221, ( #217 ) ) ;
#237 = FACE_BOUND ( 'NONE', #5, .T. ) ;
#238 = ORIENTED_EDGE ( 'NONE', *, *, #172, .F. ) ;
#239 = DIRECTION ( 'NONE',  ( -3.491481338843133355E-15, 1.224646799147352961E-16, -1.000000000000000000 ) ) ;
#240 = DIRECTION ( 'NONE',  ( 4.275831445896956855E-31, 1.000000000000000000, 1.224646799147352961E-16 ) ) ;
#241 = FACE_OUTER_BOUND ( 'NONE', #116, .T. ) ;
#242 = FACE_OUTER_BOUND ( 'NONE', #205, .T. ) ;
#243 = FACE_OUTER_BOUND ( 'NONE', #66, .T. ) ;
#244 = DIRECTION ( 'NONE',  ( 3.491481338843133355E-15, -1.224646799147352961E-16, 1.000000000000000000 ) ) ;
#245 = LOCAL_TIME ( 15, 49, 31.00000000000000000, #56 ) ;
#246 = APPROVAL_DATE_TIME ( #130, #247 ) ;
#247 = APPROVAL ( #179, 'UNSPECIFIED' ) ;
#248 = VERTEX_POINT ( 'NONE', #37 ) ;
#249 = AXIS2_PLACEMENT_3D ( 'NONE', #214, #75, #145 ) ;
#250 = APPROVAL_ROLE ( '' ) ;
#251 = CLOSED_SHELL ( 'NONE', ( #226, #192, #149, #287 ) ) ;
#252 = PERSON_AND_ORGANIZATION ( #13, #146 ) ;
#253 = CARTESIAN_POINT ( 'NONE',  ( 0.0000000000000000000, 0.0000000000000000000, 0.0000000000000000000 ) ) ;
#254 = ORIENTED_EDGE ( 'NONE', *, *, #109, .T. ) ;
#255 = AXIS2_PLACEMENT_3D ( 'NONE', #55, #244, #35 ) ;
#256 = ORIENTED_EDGE ( 'NONE', *, *, #208, .F. ) ;
#257 = PRODUCT_RELATED_PRODUCT_CATEGORY ( 'detail', '', ( #95 ) ) ;
#258 = CC_DESIGN_APPROVAL ( #62, ( #31 ) ) ;
#259 = CARTESIAN_POINT ( 'NONE',  ( 4.311035480981395782E-14, -1.512107695968337265E-15, 12.34729635533384595 ) ) ;
#260 = AXIS2_PLACEMENT_3D ( 'NONE', #264, #50, #148 ) ;
#261 = EDGE_LOOP ( 'NONE', ( #256 ) ) ;
#262 = DIRECTION ( 'NONE',  ( -3.491481338843133355E-15, 1.224646799147352961E-16, -1.000000000000000000 ) ) ;
#263 = FACE_OUTER_BOUND ( 'NONE', #44, .T. ) ;
#264 = CARTESIAN_POINT ( 'NONE',  ( 1.796236652077401126E-14, -6.300350060603827763E-16, 5.144626242432003949 ) ) ;
#265 = CARTESIAN_POINT ( 'NONE',  ( 1.326762908760390423E-13, -4.653657836759941152E-15, 38.00000000000000000 ) ) ;
#266 = CIRCLE ( 'NONE', #106, 0.5053844939755800514 ) ;
#267 = ORIENTED_EDGE ( 'NONE', *, *, #208, .T. ) ;
#268 = DIRECTION ( 'NONE',  ( 0.0000000000000000000, 1.000000000000000000, 0.0000000000000000000 ) ) ;
#269 = ADVANCED_FACE ( 'NONE', ( #143, #186 ), #213, .T. ) ;
#270 = APPROVAL_ROLE ( '' ) ;
#271 = PERSON_AND_ORGANIZATION_ROLE ( 'creator' ) ;
#272 = CC_DESIGN_APPROVAL ( #247, ( #217 ) ) ;
#273 = DATE_AND_TIME ( #42, #204 ) ;
#274 = AXIS2_PLACEMENT_3D ( 'NONE', #168, #151, #83 ) ;
#275 = COORDINATED_UNIVERSAL_TIME_OFFSET ( 1, 0, .AHEAD. ) ;
#276 =( NAMED_UNIT ( * ) PLANE_ANGLE_UNIT ( ) SI_UNIT ( $, .RADIAN. ) );
#277 = CALENDAR_DATE ( 2021, 29, 11 ) ;
#278 = MECHANICAL_CONTEXT ( 'NONE', #60, 'mechanical' ) ;
#279 = DATE_AND_TIME ( #90, #98 ) ;
#280 = AXIS2_PLACEMENT_3D ( 'NONE', #32, #104, #97 ) ;
#281 = EDGE_LOOP ( 'NONE', ( #43 ) ) ;
#282 = AXIS2_PLACEMENT_3D ( 'NONE', #253, #129, #15 ) ;
#283 = CARTESIAN_POINT ( 'NONE',  ( 8.728703347107831416E-16, -3.061616997868381785E-17, 0.2499999999999999445 ) ) ;
#284 = PLANE ( 'NONE',  #70 ) ;
#285 = FACE_OUTER_BOUND ( 'NONE', #281, .T. ) ;
#286 = DIRECTION ( 'NONE',  ( -3.491481338843133355E-15, 1.224646799147352961E-16, -1.000000000000000000 ) ) ;
#287 = ADVANCED_FACE ( 'NONE', ( #173 ), #7, .T. ) ;
#288 = FACE_BOUND ( 'NONE', #229, .T. ) ;
#289 = ORIENTED_EDGE ( 'NONE', *, *, #41, .F. ) ;
#290 = CARTESIAN_POINT ( 'NONE',  ( 4.189777606611760026E-14, -1.469576158976823750E-15, 12.00000000000000000 ) ) ;
#291 = CARTESIAN_POINT ( 'NONE',  ( 6.280491014476898362E-14, -2.202899706890974546E-15, 17.98804119216021746 ) ) ;
#292 = PLANE ( 'NONE',  #274 ) ;
#293 = AXIS2_PLACEMENT_3D ( 'NONE', #138, #188, #23 ) ;
#294 = CC_DESIGN_PERSON_AND_ORGANIZATION_ASSIGNMENT ( #131, #223, ( #217 ) ) ;
#295 = DATE_TIME_ROLE ( 'creation_date' ) ;
#296 = PERSON_AND_ORGANIZATION ( #13, #146 ) ;
#297 = CALENDAR_DATE ( 2021, 29, 11 ) ;
#298 = CARTESIAN_POINT ( 'NONE',  ( 1.326762908760390423E-13, 1.199999999999998845, 38.00000000000000000 ) ) ;
#299 = APPROVAL_STATUS ( 'not_yet_approved' ) ;
#300 = COORDINATED_UNIVERSAL_TIME_OFFSET ( 1, 0, .AHEAD. ) ;
#301 = CARTESIAN_POINT ( 'NONE',  ( 4.189777606611760026E-14, 0.4749999999999984235, 12.00000000000000000 ) ) ;
#302 = CC_DESIGN_DATE_AND_TIME_ASSIGNMENT ( #84, #295, ( #31 ) ) ;
#303 = ORIENTED_EDGE ( 'NONE', *, *, #172, .T. ) ;
ENDSEC;
END-ISO-10303-21;
