ISO-10303-21;
HEADER;
FILE_DESCRIPTION (( 'STEP AP203' ),
    '1' );
FILE_NAME ('950927.step',
    '2023-02-16T09:47:34',
    ( '' ),
    ( '' ),
    'SwSTEP 2.0',
    'SolidWorks 2019',
    '' );
FILE_SCHEMA (( 'CONFIG_CONTROL_DESIGN' ));
ENDSEC;

DATA;
#1 = DIRECTION ( 'NONE',  ( 1.000000000000000000, 1.224646799147353207E-16, -0.000000000000000000 ) ) ;
#2 = DIRECTION ( 'NONE',  ( -1.224646799147353207E-16, 1.000000000000000000, 0.000000000000000000 ) ) ;
#3 = CARTESIAN_POINT ( 'NONE',  ( -3.599999999999979217, 3.999999999999991562, 0.000000000000000000 ) ) ;
#4 = DIRECTION ( 'NONE',  ( 0.000000000000000000, 1.000000000000000000, 0.000000000000000000 ) ) ;
#5 = CARTESIAN_POINT ( 'NONE',  ( -3.599999999999978773, 2.999519565323708100E-32, 0.000000000000000000 ) ) ;
#6 = PERSON_AND_ORGANIZATION ( #28, #39 ) ;
#7 = CC_DESIGN_PERSON_AND_ORGANIZATION_ASSIGNMENT ( #154, #90, ( #123 ) ) ;
#8 = APPROVAL_STATUS ( 'not_yet_approved' ) ;
#9 = PERSON_AND_ORGANIZATION ( #28, #39 ) ;
#10 = PERSON_AND_ORGANIZATION ( #28, #39 ) ;
#11 = APPROVAL_DATE_TIME ( #127, #83 ) ;
#12 = CIRCLE ( 'NONE', #25, 0.4000000000000000222 ) ;
#13 = CARTESIAN_POINT ( 'NONE',  ( 0.000000000000000000, 0.000000000000000000, 0.000000000000000000 ) ) ;
#14 = ADVANCED_FACE ( 'NONE', ( #15, #162 ), #174, .T. ) ;
#15 = FACE_OUTER_BOUND ( 'NONE', #80, .T. ) ;
#16 = MANIFOLD_SOLID_BREP ( 'Révolution1', #100 ) ;
#17 = DIRECTION ( 'NONE',  ( 0.000000000000000000, 1.000000000000000000, 0.000000000000000000 ) ) ;
#18 = MANIFOLD_SOLID_BREP ( 'Révolution2', #104 ) ;
#19 = CC_DESIGN_SECURITY_CLASSIFICATION ( #160, ( #51 ) ) ;
#20 = CARTESIAN_POINT ( 'NONE',  ( -63.00000000000000000, -7.715274834628325378E-15, 0.000000000000000000 ) ) ;
#21 = CARTESIAN_POINT ( 'NONE',  ( 2.449293598294706538E-17, 2.999519565323715558E-33, 0.000000000000000000 ) ) ;
#22 = AXIS2_PLACEMENT_3D ( 'NONE', #70, #117, #4 ) ;
#23 = DIRECTION ( 'NONE',  ( 1.000000000000000000, 1.224646799147353207E-16, -0.000000000000000000 ) ) ;
#24 = CALENDAR_DATE ( 2023, 16, 2 ) ;
#25 = AXIS2_PLACEMENT_3D ( 'NONE', #36, #98, #119 ) ;
#26 = SHAPE_DEFINITION_REPRESENTATION ( #146, #130 ) ;
#27 = ORIENTED_EDGE ( 'NONE', *, *, #197, .F. ) ;
#28 = PERSON ( 'UNSPECIFIED', 'UNSPECIFIED', 'UNSPECIFIED', ('UNSPECIFIED'), ('UNSPECIFIED'), ('UNSPECIFIED') ) ;
#29 = ORIENTED_EDGE ( 'NONE', *, *, #197, .T. ) ;
#30 = FACE_OUTER_BOUND ( 'NONE', #97, .T. ) ;
#31 = EDGE_LOOP ( 'NONE', ( #29 ) ) ;
#32 = DIRECTION ( 'NONE',  ( 1.224646799147353207E-16, -1.000000000000000000, 0.000000000000000000 ) ) ;
#33 = FACE_OUTER_BOUND ( 'NONE', #142, .T. ) ;
#34 = CC_DESIGN_DATE_AND_TIME_ASSIGNMENT ( #110, #45, ( #123 ) ) ;
#35 = VERTEX_POINT ( 'NONE', #121 ) ;
#36 = CARTESIAN_POINT ( 'NONE',  ( 4.898587196589413075E-17, 5.999039130647431116E-33, 0.000000000000000000 ) ) ;
#37 = ADVANCED_FACE ( 'NONE', ( #82, #30 ), #164, .T. ) ;
#38 = DIRECTION ( 'NONE',  ( -1.224646799147353207E-16, 1.000000000000000000, 0.000000000000000000 ) ) ;
#39 = ORGANIZATION ( 'UNSPECIFIED', 'UNSPECIFIED', '' ) ;
#40 = COORDINATED_UNIVERSAL_TIME_OFFSET ( 1, 0, .AHEAD. ) ;
#41 = DATE_AND_TIME ( #186, #155 ) ;
#42 = PERSON_AND_ORGANIZATION_ROLE ( 'design_owner' ) ;
#43 = DIRECTION ( 'NONE',  ( 0.000000000000000000, 0.000000000000000000, 1.000000000000000000 ) ) ;
#44 = AXIS2_PLACEMENT_3D ( 'NONE', #179, #182, #32 ) ;
#45 = DATE_TIME_ROLE ( 'creation_date' ) ;
#46 = ADVANCED_FACE ( 'NONE', ( #84 ), #87, .T. ) ;
#47 = ORIENTED_EDGE ( 'NONE', *, *, #115, .T. ) ;
#48 = EDGE_LOOP ( 'NONE', ( #47 ) ) ;
#49 = DIRECTION ( 'NONE',  ( -1.000000000000000000, -1.224646799147353207E-16, 0.000000000000000000 ) ) ;
#50 = ORIENTED_EDGE ( 'NONE', *, *, #122, .F. ) ;
#51 = PRODUCT_DEFINITION_FORMATION_WITH_SPECIFIED_SOURCE ( 'ANY', '', #73, .NOT_KNOWN. ) ;
#52 = FACE_OUTER_BOUND ( 'NONE', #175, .T. ) ;
#53 =( LENGTH_UNIT ( ) NAMED_UNIT ( * ) SI_UNIT ( .MILLI., .METRE. ) );
#54 = DIRECTION ( 'NONE',  ( -1.084202172485506529E-16, 1.000000000000000000, 0.000000000000000000 ) ) ;
#55 = AXIS2_PLACEMENT_3D ( 'NONE', #66, #23, #38 ) ;
#56 = FACE_OUTER_BOUND ( 'NONE', #113, .T. ) ;
#57 = VERTEX_POINT ( 'NONE', #168 ) ;
#58 = CALENDAR_DATE ( 2023, 16, 2 ) ;
#59 = DATE_AND_TIME ( #72, #116 ) ;
#60 = DESIGN_CONTEXT ( 'detailed design', #157, 'design' ) ;
#61 = SECURITY_CLASSIFICATION_LEVEL ( 'unclassified' ) ;
#62 = AXIS2_PLACEMENT_3D ( 'NONE', #161, #49, #114 ) ;
#63 = APPROVAL ( #107, 'UNSPECIFIED' ) ;
#64 = EDGE_LOOP ( 'NONE', ( #50 ) ) ;
#65 = EDGE_LOOP ( 'NONE', ( #27 ) ) ;
#66 = CARTESIAN_POINT ( 'NONE',  ( -63.00000000000000000, 2.399615652258960404E-32, 0.000000000000000000 ) ) ;
#67 = APPROVAL_PERSON_ORGANIZATION ( #129, #181, #200 ) ;
#68 = VERTEX_POINT ( 'NONE', #135 ) ;
#69 = CC_DESIGN_DATE_AND_TIME_ASSIGNMENT ( #41, #139, ( #160 ) ) ;
#70 = CARTESIAN_POINT ( 'NONE',  ( -62.19999999999998863, -7.617303090696535366E-15, 0.000000000000000000 ) ) ;
#71 = PLANE ( 'NONE',  #55 ) ;
#72 = CALENDAR_DATE ( 2023, 16, 2 ) ;
#73 = PRODUCT ( '950927', '950927', '', ( #158 ) ) ;
#74 = PERSON_AND_ORGANIZATION ( #28, #39 ) ;
#75 = ADVANCED_FACE ( 'NONE', ( #52 ), #192, .T. ) ;
#76 = CIRCLE ( 'NONE', #165, 3.199999999999999734 ) ;
#77 = PERSON_AND_ORGANIZATION_ROLE ( 'classification_officer' ) ;
#78 = CALENDAR_DATE ( 2023, 16, 2 ) ;
#79 = LOCAL_TIME ( 10, 47, 34.00000000000000000, #140 ) ;
#80 = EDGE_LOOP ( 'NONE', ( #94 ) ) ;
#81 = AXIS2_PLACEMENT_3D ( 'NONE', #21, #88, #2 ) ;
#82 = FACE_OUTER_BOUND ( 'NONE', #64, .T. ) ;
#83 = APPROVAL ( #8, 'UNSPECIFIED' ) ;
#84 = FACE_OUTER_BOUND ( 'NONE', #48, .T. ) ;
#85 =( GEOMETRIC_REPRESENTATION_CONTEXT ( 3 ) GLOBAL_UNCERTAINTY_ASSIGNED_CONTEXT ( ( #102 ) ) GLOBAL_UNIT_ASSIGNED_CONTEXT ( ( #53, #99, #118 ) ) REPRESENTATION_CONTEXT ( 'NONE', 'WORKASPACE' ) );
#86 = CIRCLE ( 'NONE', #173, 3.999999999999992450 ) ;
#87 = PLANE ( 'NONE',  #81 ) ;
#88 = DIRECTION ( 'NONE',  ( 1.000000000000000000, 1.224646799147353207E-16, -0.000000000000000000 ) ) ;
#89 = CARTESIAN_POINT ( 'NONE',  ( -3.599999999999978773, -4.408728476930445020E-16, 0.000000000000000000 ) ) ;
#90 = PERSON_AND_ORGANIZATION_ROLE ( 'creator' ) ;
#91 = APPROVAL_ROLE ( '' ) ;
#92 = PERSON_AND_ORGANIZATION ( #28, #39 ) ;
#93 = ORIENTED_EDGE ( 'NONE', *, *, #151, .F. ) ;
#94 = ORIENTED_EDGE ( 'NONE', *, *, #151, .T. ) ;
#95 = ORIENTED_EDGE ( 'NONE', *, *, #122, .T. ) ;
#96 = CONICAL_SURFACE ( 'NONE', #108, 3.199999999999999734, 0.7853981633974423948 ) ;
#97 = EDGE_LOOP ( 'NONE', ( #176 ) ) ;
#98 = DIRECTION ( 'NONE',  ( 1.000000000000000000, 1.224646799147353207E-16, -0.000000000000000000 ) ) ;
#99 =( NAMED_UNIT ( * ) PLANE_ANGLE_UNIT ( ) SI_UNIT ( $, .RADIAN. ) );
#100 = CLOSED_SHELL ( 'NONE', ( #159, #37, #143, #163 ) ) ;
#101 = CC_DESIGN_PERSON_AND_ORGANIZATION_ASSIGNMENT ( #126, #201, ( #51 ) ) ;
#102 = UNCERTAINTY_MEASURE_WITH_UNIT (LENGTH_MEASURE( 1.000000000000000082E-05 ), #53, 'distance_accuracy_value', 'NONE');
#103 = CARTESIAN_POINT ( 'NONE',  ( -63.00000000000000000, -7.715274834628325378E-15, 0.000000000000000000 ) ) ;
#104 = CLOSED_SHELL ( 'NONE', ( #46, #14, #75 ) ) ;
#105 = APPROVAL_ROLE ( '' ) ;
#106 = APPLICATION_PROTOCOL_DEFINITION ( 'international standard', 'config_control_design', 1994, #144 ) ;
#107 = APPROVAL_STATUS ( 'not_yet_approved' ) ;
#108 = AXIS2_PLACEMENT_3D ( 'NONE', #20, #150, #180 ) ;
#109 = APPROVAL_DATE_TIME ( #172, #181 ) ;
#110 = DATE_AND_TIME ( #58, #202 ) ;
#111 = EDGE_LOOP ( 'NONE', ( #131 ) ) ;
#112 = CC_DESIGN_APPROVAL ( #181, ( #160 ) ) ;
#113 = EDGE_LOOP ( 'NONE', ( #189 ) ) ;
#114 = DIRECTION ( 'NONE',  ( 1.224646799147353207E-16, -1.000000000000000000, 0.000000000000000000 ) ) ;
#115 = EDGE_CURVE ( 'NONE', #68, #68, #12, .T. ) ;
#116 = LOCAL_TIME ( 10, 47, 34.00000000000000000, #171 ) ;
#117 = DIRECTION ( 'NONE',  ( 1.000000000000000000, 1.224646799147353207E-16, -0.000000000000000000 ) ) ;
#118 =( NAMED_UNIT ( * ) SI_UNIT ( $, .STERADIAN. ) SOLID_ANGLE_UNIT ( ) );
#119 = DIRECTION ( 'NONE',  ( -1.224646799147353207E-16, 1.000000000000000000, 0.000000000000000000 ) ) ;
#120 = FACE_OUTER_BOUND ( 'NONE', #65, .T. ) ;
#121 = CARTESIAN_POINT ( 'NONE',  ( -63.00000000000000000, 3.199999999999991740, 0.000000000000000000 ) ) ;
#122 = EDGE_CURVE ( 'NONE', #57, #57, #187, .T. ) ;
#123 = PRODUCT_DEFINITION ( 'UNKNOWN', '', #51, #60 ) ;
#124 = APPROVAL_STATUS ( 'not_yet_approved' ) ;
#125 = CIRCLE ( 'NONE', #22, 3.999999999999999112 ) ;
#126 = PERSON_AND_ORGANIZATION ( #28, #39 ) ;
#127 = DATE_AND_TIME ( #78, #79 ) ;
#128 = AXIS2_PLACEMENT_3D ( 'NONE', #13, #1, #169 ) ;
#129 = PERSON_AND_ORGANIZATION ( #28, #39 ) ;
#130 = ADVANCED_BREP_SHAPE_REPRESENTATION ( '950927', ( #16, #18, #147 ), #85 ) ;
#131 = ORIENTED_EDGE ( 'NONE', *, *, #115, .F. ) ;
#132 = CC_DESIGN_APPROVAL ( #83, ( #123 ) ) ;
#133 = DIRECTION ( 'NONE',  ( 1.000000000000000000, 1.224646799147353207E-16, -0.000000000000000000 ) ) ;
#134 = PRODUCT_RELATED_PRODUCT_CATEGORY ( 'detail', '', ( #73 ) ) ;
#135 = CARTESIAN_POINT ( 'NONE',  ( 0.000000000000000000, 0.4000000000000000222, 0.000000000000000000 ) ) ;
#136 = APPROVAL_PERSON_ORGANIZATION ( #6, #63, #91 ) ;
#137 = VERTEX_POINT ( 'NONE', #196 ) ;
#138 = PERSON_AND_ORGANIZATION_ROLE ( 'creator' ) ;
#139 = DATE_TIME_ROLE ( 'classification_date' ) ;
#140 = COORDINATED_UNIVERSAL_TIME_OFFSET ( 1, 0, .AHEAD. ) ;
#141 = AXIS2_PLACEMENT_3D ( 'NONE', #5, #167, #149 ) ;
#142 = EDGE_LOOP ( 'NONE', ( #95 ) ) ;
#143 = ADVANCED_FACE ( 'NONE', ( #56, #193 ), #96, .T. ) ;
#144 = APPLICATION_CONTEXT ( 'configuration controlled 3d designs of mechanical parts and assemblies' ) ;
#145 = DIRECTION ( 'NONE',  ( -1.084202172485506529E-16, 1.000000000000000000, 0.000000000000000000 ) ) ;
#146 = PRODUCT_DEFINITION_SHAPE ( 'NONE', 'NONE',  #123 ) ;
#147 = AXIS2_PLACEMENT_3D ( 'NONE', #183, #43, #156 ) ;
#148 = VERTEX_POINT ( 'NONE', #3 ) ;
#149 = DIRECTION ( 'NONE',  ( 1.224646799147353207E-16, -1.000000000000000000, 0.000000000000000000 ) ) ;
#150 = DIRECTION ( 'NONE',  ( 1.000000000000000000, 1.224646799147353207E-16, -0.000000000000000000 ) ) ;
#151 = EDGE_CURVE ( 'NONE', #148, #148, #86, .T. ) ;
#152 = DIRECTION ( 'NONE',  ( 1.000000000000000000, 1.224646799147353207E-16, -0.000000000000000000 ) ) ;
#153 = APPROVAL_PERSON_ORGANIZATION ( #92, #83, #105 ) ;
#154 = PERSON_AND_ORGANIZATION ( #28, #39 ) ;
#155 = LOCAL_TIME ( 10, 47, 34.00000000000000000, #40 ) ;
#156 = DIRECTION ( 'NONE',  ( 1.000000000000000000, 0.000000000000000000, 0.000000000000000000 ) ) ;
#157 = APPLICATION_CONTEXT ( 'configuration controlled 3d designs of mechanical parts and assemblies' ) ;
#158 = MECHANICAL_CONTEXT ( 'NONE', #144, 'mechanical' ) ;
#159 = ADVANCED_FACE ( 'NONE', ( #33 ), #194, .F. ) ;
#160 = SECURITY_CLASSIFICATION ( '', '', #61 ) ;
#161 = CARTESIAN_POINT ( 'NONE',  ( 4.898587196589413075E-17, 5.999039130647431116E-33, 0.000000000000000000 ) ) ;
#162 = FACE_BOUND ( 'NONE', #111, .T. ) ;
#163 = ADVANCED_FACE ( 'NONE', ( #120 ), #71, .F. ) ;
#164 = CYLINDRICAL_SURFACE ( 'NONE', #128, 3.999999999999995559 ) ;
#165 = AXIS2_PLACEMENT_3D ( 'NONE', #103, #133, #17 ) ;
#166 = DIRECTION ( 'NONE',  ( 1.000000000000000000, 1.224646799147353207E-16, -0.000000000000000000 ) ) ;
#167 = DIRECTION ( 'NONE',  ( -1.000000000000000000, -1.224646799147353207E-16, 0.000000000000000000 ) ) ;
#168 = CARTESIAN_POINT ( 'NONE',  ( -3.599999999999979217, 3.999999999999991562, 0.000000000000000000 ) ) ;
#169 = DIRECTION ( 'NONE',  ( -1.224646799147353454E-16, 1.000000000000000000, 0.000000000000000000 ) ) ;
#170 = COORDINATED_UNIVERSAL_TIME_OFFSET ( 1, 0, .AHEAD. ) ;
#171 = COORDINATED_UNIVERSAL_TIME_OFFSET ( 1, 0, .AHEAD. ) ;
#172 = DATE_AND_TIME ( #24, #199 ) ;
#173 = AXIS2_PLACEMENT_3D ( 'NONE', #89, #152, #145 ) ;
#174 = CONICAL_SURFACE ( 'NONE', #62, 0.4000000000000000222, 0.7853981633974501664 ) ;
#175 = EDGE_LOOP ( 'NONE', ( #93 ) ) ;
#176 = ORIENTED_EDGE ( 'NONE', *, *, #190, .T. ) ;
#177 = AXIS2_PLACEMENT_3D ( 'NONE', #195, #166, #54 ) ;
#178 = CC_DESIGN_PERSON_AND_ORGANIZATION_ASSIGNMENT ( #74, #138, ( #51 ) ) ;
#179 = CARTESIAN_POINT ( 'NONE',  ( -3.599999999999978773, 2.999519565323708100E-32, 0.000000000000000000 ) ) ;
#180 = DIRECTION ( 'NONE',  ( 0.000000000000000000, 1.000000000000000000, 0.000000000000000000 ) ) ;
#181 = APPROVAL ( #124, 'UNSPECIFIED' ) ;
#182 = DIRECTION ( 'NONE',  ( -1.000000000000000000, -1.224646799147353207E-16, 0.000000000000000000 ) ) ;
#183 = CARTESIAN_POINT ( 'NONE',  ( 0.000000000000000000, 0.000000000000000000, 0.000000000000000000 ) ) ;
#184 = APPROVAL_DATE_TIME ( #59, #63 ) ;
#185 = APPLICATION_PROTOCOL_DEFINITION ( 'international standard', 'config_control_design', 1994, #157 ) ;
#186 = CALENDAR_DATE ( 2023, 16, 2 ) ;
#187 = CIRCLE ( 'NONE', #177, 3.999999999999992450 ) ;
#188 = CC_DESIGN_PERSON_AND_ORGANIZATION_ASSIGNMENT ( #10, #42, ( #73 ) ) ;
#189 = ORIENTED_EDGE ( 'NONE', *, *, #190, .F. ) ;
#190 = EDGE_CURVE ( 'NONE', #137, #137, #125, .T. ) ;
#191 = CC_DESIGN_APPROVAL ( #63, ( #51 ) ) ;
#192 = PLANE ( 'NONE',  #44 ) ;
#193 = FACE_BOUND ( 'NONE', #31, .T. ) ;
#194 = PLANE ( 'NONE',  #141 ) ;
#195 = CARTESIAN_POINT ( 'NONE',  ( -3.599999999999978773, -4.408728476930445020E-16, 0.000000000000000000 ) ) ;
#196 = CARTESIAN_POINT ( 'NONE',  ( -62.19999999999998863, 3.999999999999991562, 0.000000000000000000 ) ) ;
#197 = EDGE_CURVE ( 'NONE', #35, #35, #76, .T. ) ;
#198 = COORDINATED_UNIVERSAL_TIME_OFFSET ( 1, 0, .AHEAD. ) ;
#199 = LOCAL_TIME ( 10, 47, 34.00000000000000000, #170 ) ;
#200 = APPROVAL_ROLE ( '' ) ;
#201 = PERSON_AND_ORGANIZATION_ROLE ( 'design_supplier' ) ;
#202 = LOCAL_TIME ( 10, 47, 34.00000000000000000, #198 ) ;
#203 = CC_DESIGN_PERSON_AND_ORGANIZATION_ASSIGNMENT ( #9, #77, ( #160 ) ) ;
ENDSEC;
END-ISO-10303-21;
