ISO-10303-21;
HEADER;
FILE_DESCRIPTION (( 'STEP AP203' ),
    '1' );
FILE_NAME ('950915.step',
    '2021-11-29T14:58:42',
    ( '' ),
    ( '' ),
    'SwSTEP 2.0',
    'SolidWorks 2019',
    '' );
FILE_SCHEMA (( 'CONFIG_CONTROL_DESIGN' ));
ENDSEC;

DATA;
#1 = ORIENTED_EDGE ( 'NONE', *, *, #64, .T. ) ;
#2 = FACE_BOUND ( 'NONE', #103, .T. ) ;
#3 = LOCAL_TIME ( 15, 58, 42.00000000000000000, #130 ) ;
#4 = DIRECTION ( 'NONE',  ( 4.275831445896957731E-31, 1.000000000000000000, 1.224646799147352961E-16 ) ) ;
#5 = APPLICATION_CONTEXT ( 'configuration controlled 3d designs of mechanical parts and assemblies' ) ;
#6 = CARTESIAN_POINT ( 'NONE',  ( 4.538925740496073362E-14, -1.734723475976807094E-15, 13.00000000000000000 ) ) ;
#7 = FACE_OUTER_BOUND ( 'NONE', #32, .T. ) ;
#8 = AXIS2_PLACEMENT_3D ( 'NONE', #196, #286, #203 ) ;
#9 = CARTESIAN_POINT ( 'NONE',  ( 2.154455920570546975E-14, 0.5499999999999981570, 6.170607004545537677 ) ) ;
#10 = ADVANCED_FACE ( 'NONE', ( #303, #56 ), #284, .T. ) ;
#11 = CARTESIAN_POINT ( 'NONE',  ( 4.660183614865709118E-14, -1.634572375883072414E-15, 13.34729635533384595 ) ) ;
#12 = ORIENTED_EDGE ( 'NONE', *, *, #94, .F. ) ;
#13 = CALENDAR_DATE ( 2021, 29, 11 ) ;
#14 = DIRECTION ( 'NONE',  ( 3.491481338843133355E-15, -1.224646799147352961E-16, 1.000000000000000000 ) ) ;
#15 = APPROVAL_STATUS ( 'not_yet_approved' ) ;
#16 = DIRECTION ( 'NONE',  ( 0.0000000000000000000, -1.000000000000000000, 0.0000000000000000000 ) ) ;
#17 = CIRCLE ( 'NONE', #73, 0.5499999999999996003 ) ;
#18 = PERSON_AND_ORGANIZATION ( #157, #49 ) ;
#19 = AXIS2_PLACEMENT_3D ( 'NONE', #72, #50, #141 ) ;
#20 = DIRECTION ( 'NONE',  ( -3.491481338843133355E-15, 1.224646799147352961E-16, -1.000000000000000000 ) ) ;
#21 = EDGE_CURVE ( 'NONE', #250, #250, #243, .T. ) ;
#22 = DATE_AND_TIME ( #13, #120 ) ;
#23 = CC_DESIGN_DATE_AND_TIME_ASSIGNMENT ( #288, #267, ( #241 ) ) ;
#24 = CIRCLE ( 'NONE', #71, 1.200000000000003286 ) ;
#25 = DATE_AND_TIME ( #189, #67 ) ;
#26 = EDGE_CURVE ( 'NONE', #152, #152, #301, .T. ) ;
#27 = CC_DESIGN_PERSON_AND_ORGANIZATION_ASSIGNMENT ( #70, #242, ( #145 ) ) ;
#28 = VERTEX_POINT ( 'NONE', #252 ) ;
#29 = CIRCLE ( 'NONE', #124, 0.5041624327025946428 ) ;
#30 = EDGE_LOOP ( 'NONE', ( #282 ) ) ;
#31 = ORIENTED_EDGE ( 'NONE', *, *, #74, .T. ) ;
#32 = EDGE_LOOP ( 'NONE', ( #149 ) ) ;
#33 = DIRECTION ( 'NONE',  ( 0.0000000000000000000, 1.000000000000000000, 0.0000000000000000000 ) ) ;
#34 = AXIS2_PLACEMENT_3D ( 'NONE', #6, #102, #283 ) ;
#35 = DIRECTION ( 'NONE',  ( -2.969822581938686998E-31, -1.000000000000000000, -8.359307420859721930E-17 ) ) ;
#36 = CARTESIAN_POINT ( 'NONE',  ( 2.154455920570546975E-14, -7.556814116912928599E-16, 6.170607004545537677 ) ) ;
#37 = DIRECTION ( 'NONE',  ( 4.275831445896957731E-31, 1.000000000000000000, 1.224646799147352961E-16 ) ) ;
#38 = CARTESIAN_POINT ( 'NONE',  ( 2.094888803305880013E-14, -7.347880794884118750E-16, 6.000000000000000000 ) ) ;
#39 = PERSON_AND_ORGANIZATION ( #157, #49 ) ;
#40 = CARTESIAN_POINT ( 'NONE',  ( 4.538925740496073993E-14, 0.5499999999999979350, 13.00000000000000178 ) ) ;
#41 = PERSON_AND_ORGANIZATION_ROLE ( 'classification_officer' ) ;
#42 = DIRECTION ( 'NONE',  ( -3.491481338843133355E-15, 1.224646799147352961E-16, -1.000000000000000000 ) ) ;
#43 = DATE_TIME_ROLE ( 'creation_date' ) ;
#44 = ADVANCED_FACE ( 'NONE', ( #168, #7 ), #173, .T. ) ;
#45 = APPROVAL_DATE_TIME ( #246, #163 ) ;
#46 = ADVANCED_FACE ( 'NONE', ( #53 ), #210, .F. ) ;
#47 = AXIS2_PLACEMENT_3D ( 'NONE', #106, #156, #115 ) ;
#48 = ADVANCED_FACE ( 'NONE', ( #166, #2 ), #101, .T. ) ;
#49 = ORGANIZATION ( 'UNSPECIFIED', 'UNSPECIFIED', '' ) ;
#50 = DIRECTION ( 'NONE',  ( -3.491481338843133355E-15, 1.224646799147352961E-16, -1.000000000000000000 ) ) ;
#51 = CLOSED_SHELL ( 'NONE', ( #46, #48, #44, #79, #266, #119, #88, #204 ) ) ;
#52 = MANIFOLD_SOLID_BREP ( 'Corps-Déplacer/Copier1[2]', #291 ) ;
#53 = FACE_OUTER_BOUND ( 'NONE', #98, .T. ) ;
#54 = ORIENTED_EDGE ( 'NONE', *, *, #74, .F. ) ;
#55 = AXIS2_PLACEMENT_3D ( 'NONE', #143, #238, #33 ) ;
#56 = FACE_OUTER_BOUND ( 'NONE', #164, .T. ) ;
#57 = ADVANCED_FACE ( 'NONE', ( #234, #77 ), #232, .T. ) ;
#58 = ORIENTED_EDGE ( 'NONE', *, *, #223, .F. ) ;
#59 = CC_DESIGN_PERSON_AND_ORGANIZATION_ASSIGNMENT ( #39, #41, ( #241 ) ) ;
#60 = DIRECTION ( 'NONE',  ( -4.275831445896957731E-31, -1.000000000000000000, -1.224646799147352961E-16 ) ) ;
#61 = COORDINATED_UNIVERSAL_TIME_OFFSET ( 1, 0, .AHEAD. ) ;
#62 = FACE_OUTER_BOUND ( 'NONE', #75, .T. ) ;
#63 = APPLICATION_PROTOCOL_DEFINITION ( 'international standard', 'config_control_design', 1994, #289 ) ;
#64 = EDGE_CURVE ( 'NONE', #81, #81, #165, .T. ) ;
#65 = CYLINDRICAL_SURFACE ( 'NONE', #78, 1.500000000000000444 ) ;
#66 = CARTESIAN_POINT ( 'NONE',  ( 4.660183614865709118E-14, 0.5803844939755793408, 13.34729635533384595 ) ) ;
#67 = LOCAL_TIME ( 15, 58, 42.00000000000000000, #134 ) ;
#68 = FACE_OUTER_BOUND ( 'NONE', #255, .T. ) ;
#69 = PERSON_AND_ORGANIZATION_ROLE ( 'creator' ) ;
#70 = PERSON_AND_ORGANIZATION ( #157, #49 ) ;
#71 = AXIS2_PLACEMENT_3D ( 'NONE', #224, #290, #294 ) ;
#72 = CARTESIAN_POINT ( 'NONE',  ( 2.154455920570546975E-14, -7.556814116912928599E-16, 6.170607004545537677 ) ) ;
#73 = AXIS2_PLACEMENT_3D ( 'NONE', #247, #200, #87 ) ;
#74 = EDGE_CURVE ( 'NONE', #240, #240, #29, .T. ) ;
#75 = EDGE_LOOP ( 'NONE', ( #1 ) ) ;
#76 = DIRECTION ( 'NONE',  ( -3.491481338843133355E-15, 1.224646799147352961E-16, -1.000000000000000000 ) ) ;
#77 = FACE_OUTER_BOUND ( 'NONE', #30, .T. ) ;
#78 = AXIS2_PLACEMENT_3D ( 'NONE', #82, #227, #178 ) ;
#79 = ADVANCED_FACE ( 'NONE', ( #100, #192 ), #248, .F. ) ;
#80 = EDGE_LOOP ( 'NONE', ( #139 ) ) ;
#81 = VERTEX_POINT ( 'NONE', #174 ) ;
#82 = CARTESIAN_POINT ( 'NONE',  ( 0.0000000000000000000, 0.0000000000000000000, 0.0000000000000000000 ) ) ;
#83 = EDGE_LOOP ( 'NONE', ( #259 ) ) ;
#84 = AXIS2_PLACEMENT_3D ( 'NONE', #36, #76, #261 ) ;
#85 =( NAMED_UNIT ( * ) PLANE_ANGLE_UNIT ( ) SI_UNIT ( $, .RADIAN. ) );
#86 = AXIS2_PLACEMENT_3D ( 'NONE', #285, #20, #182 ) ;
#87 = DIRECTION ( 'NONE',  ( 0.0000000000000000000, 1.000000000000000000, 0.0000000000000000000 ) ) ;
#88 = ADVANCED_FACE ( 'NONE', ( #216, #270 ), #177, .T. ) ;
#89 = DIRECTION ( 'NONE',  ( 0.0000000000000000000, 1.000000000000000000, 0.0000000000000000000 ) ) ;
#90 = DATE_AND_TIME ( #251, #99 ) ;
#91 = DIRECTION ( 'NONE',  ( 0.0000000000000000000, 1.000000000000000000, 0.0000000000000000000 ) ) ;
#92 = PERSON_AND_ORGANIZATION ( #157, #49 ) ;
#93 = APPROVAL_PERSON_ORGANIZATION ( #132, #269, #201 ) ;
#94 = EDGE_CURVE ( 'NONE', #197, #197, #185, .T. ) ;
#95 = AXIS2_PLACEMENT_3D ( 'NONE', #193, #217, #279 ) ;
#96 = EDGE_LOOP ( 'NONE', ( #142 ) ) ;
#97 = CARTESIAN_POINT ( 'NONE',  ( 0.0000000000000000000, 0.0000000000000000000, 0.0000000000000000000 ) ) ;
#98 = EDGE_LOOP ( 'NONE', ( #188 ) ) ;
#99 = LOCAL_TIME ( 15, 58, 42.00000000000000000, #61 ) ;
#100 = FACE_OUTER_BOUND ( 'NONE', #260, .T. ) ;
#101 = CONICAL_SURFACE ( 'NONE', #84, 0.5499999999999989342, 0.5235987755982957070 ) ;
#102 = DIRECTION ( 'NONE',  ( -3.491481338843133355E-15, 1.224646799147352961E-16, -1.000000000000000000 ) ) ;
#103 = EDGE_LOOP ( 'NONE', ( #233 ) ) ;
#104 = EDGE_CURVE ( 'NONE', #244, #244, #17, .T. ) ;
#105 = AXIS2_PLACEMENT_3D ( 'NONE', #107, #14, #150 ) ;
#106 = CARTESIAN_POINT ( 'NONE',  ( 1.326762908760390423E-13, 8.998558695971099120E-33, 38.00000000000000000 ) ) ;
#107 = CARTESIAN_POINT ( 'NONE',  ( -2.497408661582202214E-31, 8.759730403092755241E-33, -7.152862694118517252E-17 ) ) ;
#108 = EDGE_LOOP ( 'NONE', ( #31 ) ) ;
#109 = APPROVAL_STATUS ( 'not_yet_approved' ) ;
#110 = CARTESIAN_POINT ( 'NONE',  ( 2.094888803305880013E-14, 0.6484999999999990772, 6.000000000000000000 ) ) ;
#111 = DIRECTION ( 'NONE',  ( 1.000000000000000000, 0.0000000000000000000, 0.0000000000000000000 ) ) ;
#112 = AXIS2_PLACEMENT_3D ( 'NONE', #245, #42, #113 ) ;
#113 = DIRECTION ( 'NONE',  ( 0.0000000000000000000, 1.000000000000000000, 0.0000000000000000000 ) ) ;
#114 = PERSON_AND_ORGANIZATION_ROLE ( 'creator' ) ;
#115 = DIRECTION ( 'NONE',  ( 4.275831445896957731E-31, 1.000000000000000000, 1.224646799147352961E-16 ) ) ;
#116 = CC_DESIGN_DATE_AND_TIME_ASSIGNMENT ( #22, #43, ( #181 ) ) ;
#117 = MECHANICAL_CONTEXT ( 'NONE', #289, 'mechanical' ) ;
#118 = AXIS2_PLACEMENT_3D ( 'NONE', #263, #215, #258 ) ;
#119 = ADVANCED_FACE ( 'NONE', ( #264, #126 ), #65, .T. ) ;
#120 = LOCAL_TIME ( 15, 58, 42.00000000000000000, #137 ) ;
#121 = ORIENTED_EDGE ( 'NONE', *, *, #272, .F. ) ;
#122 = EDGE_LOOP ( 'NONE', ( #187 ) ) ;
#123 = DIRECTION ( 'NONE',  ( -3.491481338843133355E-15, 1.224646799147352961E-16, -1.000000000000000000 ) ) ;
#124 = AXIS2_PLACEMENT_3D ( 'NONE', #171, #123, #4 ) ;
#125 = EDGE_LOOP ( 'NONE', ( #212 ) ) ;
#126 = FACE_OUTER_BOUND ( 'NONE', #125, .T. ) ;
#127 = CIRCLE ( 'NONE', #299, 0.6484999999999998543 ) ;
#128 = CARTESIAN_POINT ( 'NONE',  ( -2.839103739574741706E-31, 0.5041624327025946428, -8.131516293641283255E-17 ) ) ;
#129 = AXIS2_PLACEMENT_3D ( 'NONE', #97, #239, #37 ) ;
#130 = COORDINATED_UNIVERSAL_TIME_OFFSET ( 1, 0, .AHEAD. ) ;
#131 = VERTEX_POINT ( 'NONE', #110 ) ;
#132 = PERSON_AND_ORGANIZATION ( #157, #49 ) ;
#133 = DIRECTION ( 'NONE',  ( 3.491481338843133355E-15, -1.224646799147352961E-16, 1.000000000000000000 ) ) ;
#134 = COORDINATED_UNIVERSAL_TIME_OFFSET ( 1, 0, .AHEAD. ) ;
#135 = CC_DESIGN_APPROVAL ( #163, ( #181 ) ) ;
#136 = DIRECTION ( 'NONE',  ( 3.491481338843133355E-15, -1.224646799147352961E-16, 1.000000000000000000 ) ) ;
#137 = COORDINATED_UNIVERSAL_TIME_OFFSET ( 1, 0, .AHEAD. ) ;
#138 = PERSON_AND_ORGANIZATION ( #157, #49 ) ;
#139 = ORIENTED_EDGE ( 'NONE', *, *, #64, .F. ) ;
#140 = AXIS2_PLACEMENT_3D ( 'NONE', #11, #273, #89 ) ;
#141 = DIRECTION ( 'NONE',  ( 0.0000000000000000000, 1.000000000000000000, 0.0000000000000000000 ) ) ;
#142 = ORIENTED_EDGE ( 'NONE', *, *, #275, .T. ) ;
#143 = CARTESIAN_POINT ( 'NONE',  ( 6.481130338557337725E-14, -2.273274508349776681E-15, 18.56269505568886657 ) ) ;
#144 = DIRECTION ( 'NONE',  ( -3.491481338843133355E-15, 1.224646799147352961E-16, -1.000000000000000000 ) ) ;
#145 = PRODUCT_DEFINITION_FORMATION_WITH_SPECIFIED_SOURCE ( 'ANY', '', #257, .NOT_KNOWN. ) ;
#146 = APPROVAL_PERSON_ORGANIZATION ( #92, #163, #199 ) ;
#147 = EDGE_CURVE ( 'NONE', #131, #131, #127, .T. ) ;
#148 = CARTESIAN_POINT ( 'NONE',  ( 0.0000000000000000000, 0.0000000000000000000, 0.0000000000000000000 ) ) ;
#149 = ORIENTED_EDGE ( 'NONE', *, *, #104, .T. ) ;
#150 = DIRECTION ( 'NONE',  ( -4.275831445896957731E-31, -1.000000000000000000, -1.224646799147352961E-16 ) ) ;
#151 = ADVANCED_FACE ( 'NONE', ( #155 ), #218, .F. ) ;
#152 = VERTEX_POINT ( 'NONE', #9 ) ;
#153 = AXIS2_PLACEMENT_3D ( 'NONE', #148, #144, #169 ) ;
#154 = SECURITY_CLASSIFICATION_LEVEL ( 'unclassified' ) ;
#155 = FACE_OUTER_BOUND ( 'NONE', #108, .T. ) ;
#156 = DIRECTION ( 'NONE',  ( -3.491481338843133355E-15, 1.224646799147352961E-16, -1.000000000000000000 ) ) ;
#157 = PERSON ( 'UNSPECIFIED', 'UNSPECIFIED', 'UNSPECIFIED', ('UNSPECIFIED'), ('UNSPECIFIED'), ('UNSPECIFIED') ) ;
#158 = AXIS2_PLACEMENT_3D ( 'NONE', #159, #133, #60 ) ;
#159 = CARTESIAN_POINT ( 'NONE',  ( 2.094888803305880013E-14, 4.862971095281058979E-33, 6.000000000000000000 ) ) ;
#160 = CC_DESIGN_PERSON_AND_ORGANIZATION_ASSIGNMENT ( #274, #69, ( #145 ) ) ;
#161 = CC_DESIGN_SECURITY_CLASSIFICATION ( #241, ( #145 ) ) ;
#162 = VERTEX_POINT ( 'NONE', #230 ) ;
#163 = APPROVAL ( #208, 'UNSPECIFIED' ) ;
#164 = EDGE_LOOP ( 'NONE', ( #262 ) ) ;
#165 = CIRCLE ( 'NONE', #55, 1.499999999999997558 ) ;
#166 = FACE_OUTER_BOUND ( 'NONE', #220, .T. ) ;
#167 = ORIENTED_EDGE ( 'NONE', *, *, #26, .F. ) ;
#168 = FACE_OUTER_BOUND ( 'NONE', #280, .T. ) ;
#169 = DIRECTION ( 'NONE',  ( 4.275831445896957731E-31, 1.000000000000000000, 1.224646799147352714E-16 ) ) ;
#170 = ADVANCED_FACE ( 'NONE', ( #68 ), #219, .T. ) ;
#171 = CARTESIAN_POINT ( 'NONE',  ( -4.994817323164404428E-31, 1.751946080618551048E-32, -1.430572538823703450E-16 ) ) ;
#172 = AXIS2_PLACEMENT_3D ( 'NONE', #237, #213, #35 ) ;
#173 = CYLINDRICAL_SURFACE ( 'NONE', #153, 0.5499999999999992673 ) ;
#174 = CARTESIAN_POINT ( 'NONE',  ( 6.481130338557337725E-14, 1.499999999999995559, 18.56269505568886657 ) ) ;
#175 = PLANE ( 'NONE',  #47 ) ;
#176 = DIRECTION ( 'NONE',  ( 0.0000000000000000000, 0.0000000000000000000, 1.000000000000000000 ) ) ;
#177 = CONICAL_SURFACE ( 'NONE', #112, 1.200000000000003286, 0.7853981633974453924 ) ;
#178 = DIRECTION ( 'NONE',  ( 4.275831445896957731E-31, 1.000000000000000000, 1.224646799147353207E-16 ) ) ;
#179 =( LENGTH_UNIT ( ) NAMED_UNIT ( * ) SI_UNIT ( .MILLI., .METRE. ) );
#180 = CARTESIAN_POINT ( 'NONE',  ( 8.728703347107835360E-16, 0.6484999999999990772, 0.2500000000000000555 ) ) ;
#181 = PRODUCT_DEFINITION ( 'UNKNOWN', '', #145, #209 ) ;
#182 = DIRECTION ( 'NONE',  ( 0.0000000000000000000, 1.000000000000000000, 0.0000000000000000000 ) ) ;
#183 = AXIS2_PLACEMENT_3D ( 'NONE', #296, #136, #16 ) ;
#184 = UNCERTAINTY_MEASURE_WITH_UNIT (LENGTH_MEASURE( 1.000000000000000082E-05 ), #179, 'distance_accuracy_value', 'NONE');
#185 = CIRCLE ( 'NONE', #8, 0.6484999999999998543 ) ;
#186 = PRODUCT_RELATED_PRODUCT_CATEGORY ( 'detail', '', ( #257 ) ) ;
#187 = ORIENTED_EDGE ( 'NONE', *, *, #21, .F. ) ;
#188 = ORIENTED_EDGE ( 'NONE', *, *, #147, .T. ) ;
#189 = CALENDAR_DATE ( 2021, 29, 11 ) ;
#190 = CIRCLE ( 'NONE', #140, 0.5803844939755810062 ) ;
#191 = EDGE_LOOP ( 'NONE', ( #235 ) ) ;
#192 = FACE_OUTER_BOUND ( 'NONE', #96, .T. ) ;
#193 = CARTESIAN_POINT ( 'NONE',  ( 8.728703347107833388E-16, -3.061616997868382402E-17, 0.2500000000000000000 ) ) ;
#194 = EDGE_LOOP ( 'NONE', ( #121 ) ) ;
#195 = CIRCLE ( 'NONE', #86, 1.500000000000003331 ) ;
#196 = CARTESIAN_POINT ( 'NONE',  ( 2.094888803305880013E-14, -7.347880794884118750E-16, 6.000000000000000000 ) ) ;
#197 = VERTEX_POINT ( 'NONE', #265 ) ;
#198 = ORIENTED_EDGE ( 'NONE', *, *, #147, .F. ) ;
#199 = APPROVAL_ROLE ( '' ) ;
#200 = DIRECTION ( 'NONE',  ( -3.491481338843133355E-15, 1.224646799147352961E-16, -1.000000000000000000 ) ) ;
#201 = APPROVAL_ROLE ( '' ) ;
#202 = LOCAL_TIME ( 15, 58, 42.00000000000000000, #249 ) ;
#203 = DIRECTION ( 'NONE',  ( 0.0000000000000000000, 1.000000000000000000, 0.0000000000000000000 ) ) ;
#204 = ADVANCED_FACE ( 'NONE', ( #206 ), #175, .F. ) ;
#205 = APPROVAL_ROLE ( '' ) ;
#206 = FACE_OUTER_BOUND ( 'NONE', #287, .T. ) ;
#207 = CARTESIAN_POINT ( 'NONE',  ( 0.0000000000000000000, 0.0000000000000000000, 0.0000000000000000000 ) ) ;
#208 = APPROVAL_STATUS ( 'not_yet_approved' ) ;
#209 = DESIGN_CONTEXT ( 'detailed design', #5, 'design' ) ;
#210 = PLANE ( 'NONE',  #118 ) ;
#211 = PRODUCT_DEFINITION_SHAPE ( 'NONE', 'NONE',  #181 ) ;
#212 = ORIENTED_EDGE ( 'NONE', *, *, #272, .T. ) ;
#213 = DIRECTION ( 'NONE',  ( 3.491481338843133355E-15, -1.224646799147352961E-16, 1.000000000000000000 ) ) ;
#214 = CONICAL_SURFACE ( 'NONE', #183, 1.499999999999997558, 0.1745329251994261477 ) ;
#215 = DIRECTION ( 'NONE',  ( 3.491481338843133355E-15, -1.224646799147352961E-16, 1.000000000000000000 ) ) ;
#216 = FACE_OUTER_BOUND ( 'NONE', #194, .T. ) ;
#217 = DIRECTION ( 'NONE',  ( -3.491481338843133355E-15, 1.224646799147352961E-16, -1.000000000000000000 ) ) ;
#218 = PLANE ( 'NONE',  #105 ) ;
#219 = PLANE ( 'NONE',  #158 ) ;
#220 = EDGE_LOOP ( 'NONE', ( #198 ) ) ;
#221 = APPLICATION_PROTOCOL_DEFINITION ( 'international standard', 'config_control_design', 1994, #5 ) ;
#222 = DIRECTION ( 'NONE',  ( -3.491481338843133355E-15, 1.224646799147352961E-16, -1.000000000000000000 ) ) ;
#223 = EDGE_CURVE ( 'NONE', #162, #162, #24, .T. ) ;
#224 = CARTESIAN_POINT ( 'NONE',  ( 1.326762908760390423E-13, -4.653657836759941152E-15, 38.00000000000000000 ) ) ;
#225 = CC_DESIGN_APPROVAL ( #277, ( #145 ) ) ;
#226 = PERSON_AND_ORGANIZATION ( #157, #49 ) ;
#227 = DIRECTION ( 'NONE',  ( -3.491481338843133355E-15, 1.224646799147352961E-16, -1.000000000000000000 ) ) ;
#228 = VERTEX_POINT ( 'NONE', #66 ) ;
#229 = ADVANCED_BREP_SHAPE_REPRESENTATION ( '950915', ( #254, #52, #256 ), #253 ) ;
#230 = CARTESIAN_POINT ( 'NONE',  ( 1.326762908760390423E-13, 1.199999999999998845, 38.00000000000000000 ) ) ;
#231 = CC_DESIGN_PERSON_AND_ORGANIZATION_ASSIGNMENT ( #138, #297, ( #257 ) ) ;
#232 = CONICAL_SURFACE ( 'NONE', #172, 0.6484999999999990772, 0.5235987755982927094 ) ;
#233 = ORIENTED_EDGE ( 'NONE', *, *, #26, .T. ) ;
#234 = FACE_BOUND ( 'NONE', #281, .T. ) ;
#235 = ORIENTED_EDGE ( 'NONE', *, *, #275, .F. ) ;
#236 = APPROVAL_PERSON_ORGANIZATION ( #18, #277, #205 ) ;
#237 = CARTESIAN_POINT ( 'NONE',  ( 8.728703347107833388E-16, -3.061616997868382402E-17, 0.2500000000000000000 ) ) ;
#238 = DIRECTION ( 'NONE',  ( -3.491481338843133355E-15, 1.224646799147352961E-16, -1.000000000000000000 ) ) ;
#239 = DIRECTION ( 'NONE',  ( -3.491481338843133355E-15, 1.224646799147352961E-16, -1.000000000000000000 ) ) ;
#240 = VERTEX_POINT ( 'NONE', #128 ) ;
#241 = SECURITY_CLASSIFICATION ( '', '', #154 ) ;
#242 = PERSON_AND_ORGANIZATION_ROLE ( 'design_supplier' ) ;
#243 = CIRCLE ( 'NONE', #95, 0.6484999999999990772 ) ;
#244 = VERTEX_POINT ( 'NONE', #40 ) ;
#245 = CARTESIAN_POINT ( 'NONE',  ( 1.326762908760390423E-13, -4.653657836759941152E-15, 38.00000000000000000 ) ) ;
#246 = DATE_AND_TIME ( #271, #202 ) ;
#247 = CARTESIAN_POINT ( 'NONE',  ( 4.538925740496073993E-14, -1.592040838891558898E-15, 13.00000000000000178 ) ) ;
#248 = TOROIDAL_SURFACE ( 'NONE', #34, 2.550000000000000266, 2.000000000000000444 ) ;
#249 = COORDINATED_UNIVERSAL_TIME_OFFSET ( 1, 0, .AHEAD. ) ;
#250 = VERTEX_POINT ( 'NONE', #180 ) ;
#251 = CALENDAR_DATE ( 2021, 29, 11 ) ;
#252 = CARTESIAN_POINT ( 'NONE',  ( 1.316288464743861212E-13, 1.499999999999998668, 37.69999999999999574 ) ) ;
#253 =( GEOMETRIC_REPRESENTATION_CONTEXT ( 3 ) GLOBAL_UNCERTAINTY_ASSIGNED_CONTEXT ( ( #184 ) ) GLOBAL_UNIT_ASSIGNED_CONTEXT ( ( #179, #85, #300 ) ) REPRESENTATION_CONTEXT ( 'NONE', 'WORKASPACE' ) );
#254 = MANIFOLD_SOLID_BREP ( 'Corps-Déplacer/Copier1[1]', #51 ) ;
#255 = EDGE_LOOP ( 'NONE', ( #12 ) ) ;
#256 = AXIS2_PLACEMENT_3D ( 'NONE', #207, #176, #111 ) ;
#257 = PRODUCT ( '950915', '950915', '', ( #117 ) ) ;
#258 = DIRECTION ( 'NONE',  ( -4.275831445896957731E-31, -1.000000000000000000, -1.224646799147352961E-16 ) ) ;
#259 = ORIENTED_EDGE ( 'NONE', *, *, #223, .T. ) ;
#260 = EDGE_LOOP ( 'NONE', ( #302 ) ) ;
#261 = DIRECTION ( 'NONE',  ( 0.0000000000000000000, 1.000000000000000000, 0.0000000000000000000 ) ) ;
#262 = ORIENTED_EDGE ( 'NONE', *, *, #94, .T. ) ;
#263 = CARTESIAN_POINT ( 'NONE',  ( 2.094888803305880013E-14, 4.862971095281058979E-33, 6.000000000000000000 ) ) ;
#264 = FACE_OUTER_BOUND ( 'NONE', #80, .T. ) ;
#265 = CARTESIAN_POINT ( 'NONE',  ( 2.094888803305880013E-14, 0.6484999999999990772, 6.000000000000000000 ) ) ;
#266 = ADVANCED_FACE ( 'NONE', ( #268, #62 ), #214, .T. ) ;
#267 = DATE_TIME_ROLE ( 'classification_date' ) ;
#268 = FACE_BOUND ( 'NONE', #191, .T. ) ;
#269 = APPROVAL ( #15, 'UNSPECIFIED' ) ;
#270 = FACE_BOUND ( 'NONE', #83, .T. ) ;
#271 = CALENDAR_DATE ( 2021, 29, 11 ) ;
#272 = EDGE_CURVE ( 'NONE', #28, #28, #195, .T. ) ;
#273 = DIRECTION ( 'NONE',  ( -3.491481338843133355E-15, 1.224646799147352961E-16, -1.000000000000000000 ) ) ;
#274 = PERSON_AND_ORGANIZATION ( #157, #49 ) ;
#275 = EDGE_CURVE ( 'NONE', #228, #228, #190, .T. ) ;
#276 = SHAPE_DEFINITION_REPRESENTATION ( #211, #229 ) ;
#277 = APPROVAL ( #109, 'UNSPECIFIED' ) ;
#278 = APPROVAL_DATE_TIME ( #25, #269 ) ;
#279 = DIRECTION ( 'NONE',  ( 2.969822581938686998E-31, 1.000000000000000000, 8.359307420859721930E-17 ) ) ;
#280 = EDGE_LOOP ( 'NONE', ( #167 ) ) ;
#281 = EDGE_LOOP ( 'NONE', ( #54 ) ) ;
#282 = ORIENTED_EDGE ( 'NONE', *, *, #21, .T. ) ;
#283 = DIRECTION ( 'NONE',  ( 4.275831445896957731E-31, 1.000000000000000000, 1.224646799147352961E-16 ) ) ;
#284 = CYLINDRICAL_SURFACE ( 'NONE', #129, 0.6484999999999995213 ) ;
#285 = CARTESIAN_POINT ( 'NONE',  ( 1.316288464743861212E-13, -4.616918432785520292E-15, 37.69999999999999574 ) ) ;
#286 = DIRECTION ( 'NONE',  ( -3.491481338843133355E-15, 1.224646799147352961E-16, -1.000000000000000000 ) ) ;
#287 = EDGE_LOOP ( 'NONE', ( #58 ) ) ;
#288 = DATE_AND_TIME ( #293, #3 ) ;
#289 = APPLICATION_CONTEXT ( 'configuration controlled 3d designs of mechanical parts and assemblies' ) ;
#290 = DIRECTION ( 'NONE',  ( -3.491481338843133355E-15, 1.224646799147352961E-16, -1.000000000000000000 ) ) ;
#291 = CLOSED_SHELL ( 'NONE', ( #151, #57, #10, #170 ) ) ;
#292 = CC_DESIGN_APPROVAL ( #269, ( #241 ) ) ;
#293 = CALENDAR_DATE ( 2021, 29, 11 ) ;
#294 = DIRECTION ( 'NONE',  ( 0.0000000000000000000, 1.000000000000000000, 0.0000000000000000000 ) ) ;
#295 = APPROVAL_DATE_TIME ( #90, #277 ) ;
#296 = CARTESIAN_POINT ( 'NONE',  ( 6.481130338557337725E-14, -2.273274508349776681E-15, 18.56269505568886657 ) ) ;
#297 = PERSON_AND_ORGANIZATION_ROLE ( 'design_owner' ) ;
#298 = CC_DESIGN_PERSON_AND_ORGANIZATION_ASSIGNMENT ( #226, #114, ( #181 ) ) ;
#299 = AXIS2_PLACEMENT_3D ( 'NONE', #38, #222, #91 ) ;
#300 =( NAMED_UNIT ( * ) SI_UNIT ( $, .STERADIAN. ) SOLID_ANGLE_UNIT ( ) );
#301 = CIRCLE ( 'NONE', #19, 0.5499999999999989342 ) ;
#302 = ORIENTED_EDGE ( 'NONE', *, *, #104, .F. ) ;
#303 = FACE_OUTER_BOUND ( 'NONE', #122, .T. ) ;
ENDSEC;
END-ISO-10303-21;
