ISO-10303-21;
HEADER;
FILE_DESCRIPTION (( 'STEP AP203' ),
    '1' );
FILE_NAME ('950790.step',
    '2021-11-01T12:23:52',
    ( '' ),
    ( '' ),
    'SwSTEP 2.0',
    'SolidWorks 2019',
    '' );
FILE_SCHEMA (( 'CONFIG_CONTROL_DESIGN' ));
ENDSEC;

DATA;
#1 = PERSON_AND_ORGANIZATION ( #234, #59 ) ;
#2 =( GEOMETRIC_REPRESENTATION_CONTEXT ( 3 ) GLOBAL_UNCERTAINTY_ASSIGNED_CONTEXT ( ( #130 ) ) GLOBAL_UNIT_ASSIGNED_CONTEXT ( ( #49, #174, #47 ) ) REPRESENTATION_CONTEXT ( 'NONE', 'WORKASPACE' ) );
#3 = ORIENTED_EDGE ( 'NONE', *, *, #21, .F. ) ;
#4 = EDGE_LOOP ( 'NONE', ( #203 ) ) ;
#5 = AXIS2_PLACEMENT_3D ( 'NONE', #76, #113, #152 ) ;
#6 = CARTESIAN_POINT ( 'NONE',  ( 1.332921215040759645E-14, -4.654628273058731227E-16, 3.817638090205028867 ) ) ;
#7 = ADVANCED_FACE ( 'NONE', ( #167 ), #78, .F. ) ;
#8 = CARTESIAN_POINT ( 'NONE',  ( 2.482007935798866040E-14, -8.667297197735927154E-16, 7.108753262365291370 ) ) ;
#9 = CARTESIAN_POINT ( 'NONE',  ( -8.551680453529350800E-31, 2.999525725151307090E-32, -2.449298628175645296E-16 ) ) ;
#10 = AXIS2_PLACEMENT_3D ( 'NONE', #72, #172, #87 ) ;
#11 = APPROVAL_PERSON_ORGANIZATION ( #90, #128, #224 ) ;
#12 = APPLICATION_PROTOCOL_DEFINITION ( 'international standard', 'config_control_design', 1994, #120 ) ;
#13 = AXIS2_PLACEMENT_3D ( 'NONE', #132, #207, #25 ) ;
#14 = CARTESIAN_POINT ( 'NONE',  ( -2.819976842968838715E-30, -0.5500000000000001554, -8.076734684491280899E-16 ) ) ;
#15 = PERSON_AND_ORGANIZATION ( #234, #59 ) ;
#16 = FACE_OUTER_BOUND ( 'NONE', #146, .T. ) ;
#17 = APPROVAL_DATE_TIME ( #221, #158 ) ;
#18 = APPROVAL_STATUS ( 'not_yet_approved' ) ;
#19 = APPROVAL_PERSON_ORGANIZATION ( #15, #158, #242 ) ;
#20 = ORIENTED_EDGE ( 'NONE', *, *, #180, .T. ) ;
#21 = EDGE_CURVE ( 'NONE', #48, #48, #175, .T. ) ;
#22 = EDGE_LOOP ( 'NONE', ( #68 ) ) ;
#23 = DIRECTION ( 'NONE',  ( 3.491481338843133355E-15, -1.219242935835426903E-16, 1.000000000000000000 ) ) ;
#24 = CARTESIAN_POINT ( 'NONE',  ( 1.152188841818233849E-14, -4.023501688256907990E-16, 3.299999999999999378 ) ) ;
#25 = DIRECTION ( 'NONE',  ( 4.275831445896958607E-31, 1.000000000000000000, 1.224646799147353207E-16 ) ) ;
#26 = FACE_OUTER_BOUND ( 'NONE', #104, .T. ) ;
#27 = AXIS2_PLACEMENT_3D ( 'NONE', #103, #199, #123 ) ;
#28 = VERTEX_POINT ( 'NONE', #200 ) ;
#29 = CARTESIAN_POINT ( 'NONE',  ( 1.152188841818233849E-14, -0.5500000000000005995, 3.299999999999999378 ) ) ;
#30 = CIRCLE ( 'NONE', #62, 1.499999999999996669 ) ;
#31 = MECHANICAL_CONTEXT ( 'NONE', #120, 'mechanical' ) ;
#32 = CC_DESIGN_SECURITY_CLASSIFICATION ( #143, ( #239 ) ) ;
#33 = ORIENTED_EDGE ( 'NONE', *, *, #153, .T. ) ;
#34 = APPLICATION_PROTOCOL_DEFINITION ( 'international standard', 'config_control_design', 1994, #82 ) ;
#35 = EDGE_LOOP ( 'NONE', ( #166 ) ) ;
#36 = ADVANCED_FACE ( 'NONE', ( #233 ), #97, .T. ) ;
#37 = PERSON_AND_ORGANIZATION ( #234, #59 ) ;
#38 = DIRECTION ( 'NONE',  ( -3.491481338843133355E-15, 1.224646799147353207E-16, -1.000000000000000000 ) ) ;
#39 = DESIGN_CONTEXT ( 'detailed design', #82, 'design' ) ;
#40 = CARTESIAN_POINT ( 'NONE',  ( 3.785046510823019135E-14, -1.321757378104330448E-15, 10.84080406993426848 ) ) ;
#41 = AXIS2_PLACEMENT_3D ( 'NONE', #40, #154, #58 ) ;
#42 = CC_DESIGN_APPROVAL ( #128, ( #143 ) ) ;
#43 = CARTESIAN_POINT ( 'NONE',  ( 0.0000000000000000000, 0.0000000000000000000, 0.0000000000000000000 ) ) ;
#44 = FACE_OUTER_BOUND ( 'NONE', #141, .T. ) ;
#45 = DIRECTION ( 'NONE',  ( -3.491481338843133355E-15, 1.224646799147353207E-16, -1.000000000000000000 ) ) ;
#46 = AXIS2_PLACEMENT_3D ( 'NONE', #195, #45, #156 ) ;
#47 =( NAMED_UNIT ( * ) SI_UNIT ( $, .STERADIAN. ) SOLID_ANGLE_UNIT ( ) );
#48 = VERTEX_POINT ( 'NONE', #14 ) ;
#49 =( LENGTH_UNIT ( ) NAMED_UNIT ( * ) SI_UNIT ( .MILLI., .METRE. ) );
#50 = AXIS2_PLACEMENT_3D ( 'NONE', #235, #208, #169 ) ;
#51 = PERSON_AND_ORGANIZATION ( #234, #59 ) ;
#52 = CALENDAR_DATE ( 2021, 1, 11 ) ;
#53 = CALENDAR_DATE ( 2021, 1, 11 ) ;
#54 = SECURITY_CLASSIFICATION_LEVEL ( 'unclassified' ) ;
#55 = CARTESIAN_POINT ( 'NONE',  ( 1.316288464743861212E-13, -4.616918432785521081E-15, 37.69999999999999574 ) ) ;
#56 = CARTESIAN_POINT ( 'NONE',  ( -2.585843825279624975E-30, 9.029897373561444056E-32, -7.406151069781795413E-16 ) ) ;
#57 = FACE_OUTER_BOUND ( 'NONE', #184, .T. ) ;
#58 = DIRECTION ( 'NONE',  ( 0.0000000000000000000, -1.000000000000000000, 0.0000000000000000000 ) ) ;
#59 = ORGANIZATION ( 'UNSPECIFIED', 'UNSPECIFIED', '' ) ;
#60 = EDGE_CURVE ( 'NONE', #65, #65, #157, .T. ) ;
#61 = DIRECTION ( 'NONE',  ( 0.0000000000000000000, -1.000000000000000000, 0.0000000000000000000 ) ) ;
#62 = AXIS2_PLACEMENT_3D ( 'NONE', #55, #38, #112 ) ;
#63 = AXIS2_PLACEMENT_3D ( 'NONE', #185, #137, #236 ) ;
#64 = ADVANCED_FACE ( 'NONE', ( #75, #131 ), #209, .T. ) ;
#65 = VERTEX_POINT ( 'NONE', #194 ) ;
#66 = MANIFOLD_SOLID_BREP ( 'Corps-Déplacer/Copier1[2]', #83 ) ;
#67 = COORDINATED_UNIVERSAL_TIME_OFFSET ( 1, 0, .AHEAD. ) ;
#68 = ORIENTED_EDGE ( 'NONE', *, *, #60, .F. ) ;
#69 = AXIS2_PLACEMENT_3D ( 'NONE', #8, #189, #77 ) ;
#70 = APPROVAL_ROLE ( '' ) ;
#71 = CALENDAR_DATE ( 2021, 1, 11 ) ;
#72 = CARTESIAN_POINT ( 'NONE',  ( 1.326762908760390423E-13, 8.998558695971051224E-33, 38.00000000000000000 ) ) ;
#73 = MANIFOLD_SOLID_BREP ( 'Corps-Déplacer/Copier1[1]', #216 ) ;
#74 = DIRECTION ( 'NONE',  ( -4.275831445896958607E-31, -1.000000000000000000, -1.224646799147353207E-16 ) ) ;
#75 = FACE_OUTER_BOUND ( 'NONE', #225, .T. ) ;
#76 = CARTESIAN_POINT ( 'NONE',  ( 1.152188841818234007E-14, 1.124819836996387048E-32, 3.299999999999999822 ) ) ;
#77 = DIRECTION ( 'NONE',  ( 0.0000000000000000000, -1.000000000000000000, 0.0000000000000000000 ) ) ;
#78 = PLANE ( 'NONE',  #119 ) ;
#79 = AXIS2_PLACEMENT_3D ( 'NONE', #232, #99, #74 ) ;
#80 = APPROVAL_PERSON_ORGANIZATION ( #1, #241, #70 ) ;
#81 = ADVANCED_FACE ( 'NONE', ( #150 ), #191, .F. ) ;
#82 = APPLICATION_CONTEXT ( 'configuration controlled 3d designs of mechanical parts and assemblies' ) ;
#83 = CLOSED_SHELL ( 'NONE', ( #36, #163, #7 ) ) ;
#84 = FACE_BOUND ( 'NONE', #240, .T. ) ;
#85 = PRODUCT_RELATED_PRODUCT_CATEGORY ( 'detail', '', ( #219 ) ) ;
#86 = DATE_AND_TIME ( #91, #171 ) ;
#87 = DIRECTION ( 'NONE',  ( 4.275831445896958607E-31, 1.000000000000000000, 1.224646799147353207E-16 ) ) ;
#88 = CARTESIAN_POINT ( 'NONE',  ( 1.326762908760390423E-13, 1.199999999999991962, 38.00000000000000000 ) ) ;
#89 = ORIENTED_EDGE ( 'NONE', *, *, #220, .F. ) ;
#90 = PERSON_AND_ORGANIZATION ( #234, #59 ) ;
#91 = CALENDAR_DATE ( 2021, 1, 11 ) ;
#92 = PERSON_AND_ORGANIZATION ( #234, #59 ) ;
#93 = PLANE ( 'NONE',  #10 ) ;
#94 = EDGE_LOOP ( 'NONE', ( #3 ) ) ;
#95 = EDGE_LOOP ( 'NONE', ( #227 ) ) ;
#96 = DIRECTION ( 'NONE',  ( 0.0000000000000000000, -1.000000000000000000, 0.0000000000000000000 ) ) ;
#97 = PLANE ( 'NONE',  #79 ) ;
#98 = ADVANCED_FACE ( 'NONE', ( #26, #231 ), #151, .F. ) ;
#99 = DIRECTION ( 'NONE',  ( 3.491481338843133355E-15, -1.224646799147353207E-16, 1.000000000000000000 ) ) ;
#100 = DIRECTION ( 'NONE',  ( -3.491481338843133355E-15, 1.224646799147353207E-16, -1.000000000000000000 ) ) ;
#101 = CC_DESIGN_PERSON_AND_ORGANIZATION_ASSIGNMENT ( #176, #144, ( #219 ) ) ;
#102 = COORDINATED_UNIVERSAL_TIME_OFFSET ( 1, 0, .AHEAD. ) ;
#103 = CARTESIAN_POINT ( 'NONE',  ( 0.0000000000000000000, 0.0000000000000000000, 0.0000000000000000000 ) ) ;
#104 = EDGE_LOOP ( 'NONE', ( #182 ) ) ;
#105 = ADVANCED_BREP_SHAPE_REPRESENTATION ( '950790', ( #73, #66, #27 ), #2 ) ;
#106 = APPROVAL_STATUS ( 'not_yet_approved' ) ;
#107 = EDGE_LOOP ( 'NONE', ( #202 ) ) ;
#108 = AXIS2_PLACEMENT_3D ( 'NONE', #6, #228, #61 ) ;
#109 = AXIS2_PLACEMENT_3D ( 'NONE', #24, #188, #96 ) ;
#110 = SHAPE_DEFINITION_REPRESENTATION ( #177, #105 ) ;
#111 = ADVANCED_FACE ( 'NONE', ( #186, #155 ), #138, .T. ) ;
#112 = DIRECTION ( 'NONE',  ( 0.0000000000000000000, 1.000000000000000000, 0.0000000000000000000 ) ) ;
#113 = DIRECTION ( 'NONE',  ( 3.491481338843133355E-15, -1.224646799147353207E-16, 1.000000000000000000 ) ) ;
#114 = CIRCLE ( 'NONE', #109, 0.5500000000000001554 ) ;
#115 = CC_DESIGN_DATE_AND_TIME_ASSIGNMENT ( #86, #161, ( #173 ) ) ;
#116 = DIRECTION ( 'NONE',  ( -4.275831445896958607E-31, -1.000000000000000000, -1.224646799147353207E-16 ) ) ;
#117 = CARTESIAN_POINT ( 'NONE',  ( 1.326762908760390423E-13, -4.653657836759941941E-15, 38.00000000000000000 ) ) ;
#118 = DIRECTION ( 'NONE',  ( 3.491481338843133355E-15, -1.224646799147353207E-16, 1.000000000000000000 ) ) ;
#119 = AXIS2_PLACEMENT_3D ( 'NONE', #9, #118, #116 ) ;
#120 = APPLICATION_CONTEXT ( 'configuration controlled 3d designs of mechanical parts and assemblies' ) ;
#121 = VERTEX_POINT ( 'NONE', #88 ) ;
#122 = AXIS2_PLACEMENT_3D ( 'NONE', #56, #168, #133 ) ;
#123 = DIRECTION ( 'NONE',  ( 1.000000000000000000, 0.0000000000000000000, 0.0000000000000000000 ) ) ;
#124 = DATE_AND_TIME ( #52, #136 ) ;
#125 = APPROVAL_DATE_TIME ( #165, #128 ) ;
#126 = PERSON_AND_ORGANIZATION_ROLE ( 'design_supplier' ) ;
#127 = DATE_TIME_ROLE ( 'classification_date' ) ;
#128 = APPROVAL ( #149, 'UNSPECIFIED' ) ;
#129 = DIRECTION ( 'NONE',  ( 0.0000000000000000000, 1.000000000000000000, 0.0000000000000000000 ) ) ;
#130 = UNCERTAINTY_MEASURE_WITH_UNIT (LENGTH_MEASURE( 1.000000000000000082E-05 ), #49, 'distance_accuracy_value', 'NONE');
#131 = FACE_OUTER_BOUND ( 'NONE', #22, .T. ) ;
#132 = CARTESIAN_POINT ( 'NONE',  ( 0.0000000000000000000, 0.0000000000000000000, 0.0000000000000000000 ) ) ;
#133 = DIRECTION ( 'NONE',  ( -4.256963957985708013E-31, -1.000000000000000000, -1.219242935835427642E-16 ) ) ;
#134 = FACE_OUTER_BOUND ( 'NONE', #95, .T. ) ;
#135 = AXIS2_PLACEMENT_3D ( 'NONE', #117, #100, #129 ) ;
#136 = LOCAL_TIME ( 13, 23, 52.00000000000000000, #223 ) ;
#137 = DIRECTION ( 'NONE',  ( 3.491481338843133355E-15, -1.219242935835426903E-16, 1.000000000000000000 ) ) ;
#138 = CONICAL_SURFACE ( 'NONE', #41, 2.499999999999995559, 0.2617993877991429130 ) ;
#139 = LOCAL_TIME ( 13, 23, 52.00000000000000000, #204 ) ;
#140 = EDGE_CURVE ( 'NONE', #214, #214, #114, .T. ) ;
#141 = EDGE_LOOP ( 'NONE', ( #160 ) ) ;
#142 = CALENDAR_DATE ( 2021, 1, 11 ) ;
#143 = SECURITY_CLASSIFICATION ( '', '', #54 ) ;
#144 = PERSON_AND_ORGANIZATION_ROLE ( 'design_owner' ) ;
#145 = DATE_AND_TIME ( #71, #139 ) ;
#146 = EDGE_LOOP ( 'NONE', ( #206 ) ) ;
#147 = PERSON_AND_ORGANIZATION ( #234, #59 ) ;
#148 = CC_DESIGN_DATE_AND_TIME_ASSIGNMENT ( #145, #127, ( #143 ) ) ;
#149 = APPROVAL_STATUS ( 'not_yet_approved' ) ;
#150 = FACE_OUTER_BOUND ( 'NONE', #162, .T. ) ;
#151 = TOROIDAL_SURFACE ( 'NONE', #50, 2.550000000000000266, 2.000000000000000000 ) ;
#152 = DIRECTION ( 'NONE',  ( -4.275831445896958607E-31, -1.000000000000000000, -1.224646799147353207E-16 ) ) ;
#153 = EDGE_CURVE ( 'NONE', #218, #218, #213, .T. ) ;
#154 = DIRECTION ( 'NONE',  ( 3.491481338843133355E-15, -1.219242935835426903E-16, 1.000000000000000000 ) ) ;
#155 = FACE_OUTER_BOUND ( 'NONE', #4, .T. ) ;
#156 = DIRECTION ( 'NONE',  ( 0.0000000000000000000, 1.000000000000000000, 0.0000000000000000000 ) ) ;
#157 = CIRCLE ( 'NONE', #69, 1.499999999999994893 ) ;
#158 = APPROVAL ( #18, 'UNSPECIFIED' ) ;
#159 = EDGE_LOOP ( 'NONE', ( #33 ) ) ;
#160 = ORIENTED_EDGE ( 'NONE', *, *, #140, .F. ) ;
#161 = DATE_TIME_ROLE ( 'creation_date' ) ;
#162 = EDGE_LOOP ( 'NONE', ( #89 ) ) ;
#163 = ADVANCED_FACE ( 'NONE', ( #57, #44 ), #211, .T. ) ;
#164 = PERSON_AND_ORGANIZATION_ROLE ( 'creator' ) ;
#165 = DATE_AND_TIME ( #53, #192 ) ;
#166 = ORIENTED_EDGE ( 'NONE', *, *, #153, .F. ) ;
#167 = FACE_OUTER_BOUND ( 'NONE', #94, .T. ) ;
#168 = DIRECTION ( 'NONE',  ( 3.491481338843133355E-15, -1.219242935835426903E-16, 1.000000000000000000 ) ) ;
#169 = DIRECTION ( 'NONE',  ( -4.315327242388476984E-31, -1.000000000000000000, -1.219242935835426903E-16 ) ) ;
#170 = EDGE_CURVE ( 'NONE', #121, #121, #196, .T. ) ;
#171 = LOCAL_TIME ( 13, 23, 52.00000000000000000, #102 ) ;
#172 = DIRECTION ( 'NONE',  ( -3.491481338843133355E-15, 1.224646799147353207E-16, -1.000000000000000000 ) ) ;
#173 = PRODUCT_DEFINITION ( 'UNKNOWN', '', #239, #39 ) ;
#174 =( NAMED_UNIT ( * ) PLANE_ANGLE_UNIT ( ) SI_UNIT ( $, .RADIAN. ) );
#175 = CIRCLE ( 'NONE', #122, 0.5500000000000001554 ) ;
#176 = PERSON_AND_ORGANIZATION ( #234, #59 ) ;
#177 = PRODUCT_DEFINITION_SHAPE ( 'NONE', 'NONE',  #173 ) ;
#178 = CARTESIAN_POINT ( 'NONE',  ( 1.152188841818233849E-14, -0.5500000000000005995, 3.299999999999999378 ) ) ;
#179 = ORIENTED_EDGE ( 'NONE', *, *, #21, .T. ) ;
#180 = EDGE_CURVE ( 'NONE', #28, #28, #30, .T. ) ;
#181 = APPROVAL_DATE_TIME ( #124, #241 ) ;
#182 = ORIENTED_EDGE ( 'NONE', *, *, #220, .T. ) ;
#183 = LOCAL_TIME ( 13, 23, 52.00000000000000000, #67 ) ;
#184 = EDGE_LOOP ( 'NONE', ( #179 ) ) ;
#185 = CARTESIAN_POINT ( 'NONE',  ( 1.152188841818233849E-14, -4.023501688256907990E-16, 3.299999999999999378 ) ) ;
#186 = FACE_BOUND ( 'NONE', #159, .T. ) ;
#187 = CONICAL_SURFACE ( 'NONE', #46, 1.199999999999996403, 0.7853981633974461696 ) ;
#188 = DIRECTION ( 'NONE',  ( 3.491481338843133355E-15, -1.219242935835426903E-16, 1.000000000000000000 ) ) ;
#189 = DIRECTION ( 'NONE',  ( -3.491481338843133355E-15, 1.219242935835426903E-16, -1.000000000000000000 ) ) ;
#190 = CC_DESIGN_PERSON_AND_ORGANIZATION_ASSIGNMENT ( #147, #126, ( #239 ) ) ;
#191 = PLANE ( 'NONE',  #5 ) ;
#192 = LOCAL_TIME ( 13, 23, 52.00000000000000000, #205 ) ;
#193 = CC_DESIGN_PERSON_AND_ORGANIZATION_ASSIGNMENT ( #37, #226, ( #143 ) ) ;
#194 = CARTESIAN_POINT ( 'NONE',  ( 2.482007935798866040E-14, -1.499999999999995781, 7.108753262365291370 ) ) ;
#195 = CARTESIAN_POINT ( 'NONE',  ( 1.326762908760390423E-13, -4.653657836759941941E-15, 38.00000000000000000 ) ) ;
#196 = CIRCLE ( 'NONE', #135, 1.199999999999996403 ) ;
#197 = CARTESIAN_POINT ( 'NONE',  ( 1.332921215040759645E-14, -0.6181483474218606444, 3.817638090205028867 ) ) ;
#198 = VERTEX_POINT ( 'NONE', #178 ) ;
#199 = DIRECTION ( 'NONE',  ( 0.0000000000000000000, 0.0000000000000000000, 1.000000000000000000 ) ) ;
#200 = CARTESIAN_POINT ( 'NONE',  ( 1.316288464743861212E-13, 1.499999999999992228, 37.69999999999999574 ) ) ;
#201 = CC_DESIGN_PERSON_AND_ORGANIZATION_ASSIGNMENT ( #51, #164, ( #173 ) ) ;
#202 = ORIENTED_EDGE ( 'NONE', *, *, #140, .T. ) ;
#203 = ORIENTED_EDGE ( 'NONE', *, *, #60, .T. ) ;
#204 = COORDINATED_UNIVERSAL_TIME_OFFSET ( 1, 0, .AHEAD. ) ;
#205 = COORDINATED_UNIVERSAL_TIME_OFFSET ( 1, 0, .AHEAD. ) ;
#206 = ORIENTED_EDGE ( 'NONE', *, *, #170, .F. ) ;
#207 = DIRECTION ( 'NONE',  ( -3.491481338843133355E-15, 1.224646799147353207E-16, -1.000000000000000000 ) ) ;
#208 = DIRECTION ( 'NONE',  ( 3.491481338843133355E-15, -1.219242935835426903E-16, 1.000000000000000000 ) ) ;
#209 = CYLINDRICAL_SURFACE ( 'NONE', #13, 1.499999999999994893 ) ;
#210 = AXIS2_PLACEMENT_3D ( 'NONE', #43, #23, #212 ) ;
#211 = CYLINDRICAL_SURFACE ( 'NONE', #210, 0.5500000000000001554 ) ;
#212 = DIRECTION ( 'NONE',  ( -4.256963957985708889E-31, -1.000000000000000000, -1.219242935835426903E-16 ) ) ;
#213 = CIRCLE ( 'NONE', #108, 0.6181483474218602003 ) ;
#214 = VERTEX_POINT ( 'NONE', #29 ) ;
#215 = CC_DESIGN_APPROVAL ( #158, ( #173 ) ) ;
#216 = CLOSED_SHELL ( 'NONE', ( #64, #229, #237, #111, #98, #81 ) ) ;
#217 = CC_DESIGN_PERSON_AND_ORGANIZATION_ASSIGNMENT ( #92, #238, ( #239 ) ) ;
#218 = VERTEX_POINT ( 'NONE', #197 ) ;
#219 = PRODUCT ( '950790', '950790', '', ( #31 ) ) ;
#220 = EDGE_CURVE ( 'NONE', #198, #198, #222, .T. ) ;
#221 = DATE_AND_TIME ( #142, #183 ) ;
#222 = CIRCLE ( 'NONE', #63, 0.5500000000000001554 ) ;
#223 = COORDINATED_UNIVERSAL_TIME_OFFSET ( 1, 0, .AHEAD. ) ;
#224 = APPROVAL_ROLE ( '' ) ;
#225 = EDGE_LOOP ( 'NONE', ( #20 ) ) ;
#226 = PERSON_AND_ORGANIZATION_ROLE ( 'classification_officer' ) ;
#227 = ORIENTED_EDGE ( 'NONE', *, *, #180, .F. ) ;
#228 = DIRECTION ( 'NONE',  ( 3.491481338843133355E-15, -1.219242935835426903E-16, 1.000000000000000000 ) ) ;
#229 = ADVANCED_FACE ( 'NONE', ( #134, #84 ), #187, .T. ) ;
#230 = CC_DESIGN_APPROVAL ( #241, ( #239 ) ) ;
#231 = FACE_OUTER_BOUND ( 'NONE', #35, .T. ) ;
#232 = CARTESIAN_POINT ( 'NONE',  ( 1.152188841818234007E-14, 1.124819836996387048E-32, 3.299999999999999822 ) ) ;
#233 = FACE_OUTER_BOUND ( 'NONE', #107, .T. ) ;
#234 = PERSON ( 'UNSPECIFIED', 'UNSPECIFIED', 'UNSPECIFIED', ('UNSPECIFIED'), ('UNSPECIFIED'), ('UNSPECIFIED') ) ;
#235 = CARTESIAN_POINT ( 'NONE',  ( 1.152188841818233849E-14, -4.336808689942017736E-16, 3.299999999999999378 ) ) ;
#236 = DIRECTION ( 'NONE',  ( 0.0000000000000000000, -1.000000000000000000, 0.0000000000000000000 ) ) ;
#237 = ADVANCED_FACE ( 'NONE', ( #16 ), #93, .F. ) ;
#238 = PERSON_AND_ORGANIZATION_ROLE ( 'creator' ) ;
#239 = PRODUCT_DEFINITION_FORMATION_WITH_SPECIFIED_SOURCE ( 'ANY', '', #219, .NOT_KNOWN. ) ;
#240 = EDGE_LOOP ( 'NONE', ( #243 ) ) ;
#241 = APPROVAL ( #106, 'UNSPECIFIED' ) ;
#242 = APPROVAL_ROLE ( '' ) ;
#243 = ORIENTED_EDGE ( 'NONE', *, *, #170, .T. ) ;
ENDSEC;
END-ISO-10303-21;
