ISO-10303-21;
HEADER;
FILE_DESCRIPTION (( 'STEP AP203' ),
    '1' );
FILE_NAME ('950699.step',
    '2021-11-01T09:46:03',
    ( '' ),
    ( '' ),
    'SwSTEP 2.0',
    'SolidWorks 2019',
    '' );
FILE_SCHEMA (( 'CONFIG_CONTROL_DESIGN' ));
ENDSEC;

DATA;
#1 = APPROVAL_PERSON_ORGANIZATION ( #202, #20, #189 ) ;
#2 = CARTESIAN_POINT ( 'NONE',  ( 1.326762908760390423E-13, -4.653657836759941941E-15, 38.00000000000000000 ) ) ;
#3 = CARTESIAN_POINT ( 'NONE',  ( 2.793185071074506290E-15, -1.156482317317874437E-16, 0.7999999999999998224 ) ) ;
#4 =( GEOMETRIC_REPRESENTATION_CONTEXT ( 3 ) GLOBAL_UNCERTAINTY_ASSIGNED_CONTEXT ( ( #9 ) ) GLOBAL_UNIT_ASSIGNED_CONTEXT ( ( #200, #123, #88 ) ) REPRESENTATION_CONTEXT ( 'NONE', 'WORKASPACE' ) );
#5 = FACE_OUTER_BOUND ( 'NONE', #19, .T. ) ;
#6 = DIRECTION ( 'NONE',  ( 0.0000000000000000000, -1.000000000000000000, 0.0000000000000000000 ) ) ;
#7 = DIRECTION ( 'NONE',  ( -3.491481338843133355E-15, 1.224646799147353207E-16, -1.000000000000000000 ) ) ;
#8 = CARTESIAN_POINT ( 'NONE',  ( -4.638627293762568037E-30, -0.1750000000000000167, -1.328555659787524289E-15 ) ) ;
#9 = UNCERTAINTY_MEASURE_WITH_UNIT (LENGTH_MEASURE( 1.000000000000000082E-05 ), #200, 'distance_accuracy_value', 'NONE');
#10 = EDGE_CURVE ( 'NONE', #71, #71, #198, .T. ) ;
#11 = PERSON_AND_ORGANIZATION_ROLE ( 'creator' ) ;
#12 = COORDINATED_UNIVERSAL_TIME_OFFSET ( 1, 0, .AHEAD. ) ;
#13 = LOCAL_TIME ( 10, 46, 3.000000000000000000, #179 ) ;
#14 = DIRECTION ( 'NONE',  ( 0.0000000000000000000, -1.000000000000000000, 0.0000000000000000000 ) ) ;
#15 = ORIENTED_EDGE ( 'NONE', *, *, #10, .F. ) ;
#16 = ORIENTED_EDGE ( 'NONE', *, *, #165, .T. ) ;
#17 = AXIS2_PLACEMENT_3D ( 'NONE', #205, #42, #102 ) ;
#18 = SECURITY_CLASSIFICATION_LEVEL ( 'unclassified' ) ;
#19 = EDGE_LOOP ( 'NONE', ( #226 ) ) ;
#20 = APPROVAL ( #127, 'UNSPECIFIED' ) ;
#21 = APPROVAL_DATE_TIME ( #40, #106 ) ;
#22 = EDGE_LOOP ( 'NONE', ( #242 ) ) ;
#23 = ORIENTED_EDGE ( 'NONE', *, *, #65, .T. ) ;
#24 = AXIS2_PLACEMENT_3D ( 'NONE', #25, #116, #155 ) ;
#25 = CARTESIAN_POINT ( 'NONE',  ( -1.924129419174264339E-30, 6.748937501461144163E-32, -5.510925685805913103E-16 ) ) ;
#26 = CARTESIAN_POINT ( 'NONE',  ( 1.326762908760390423E-13, -4.653657836759941941E-15, 38.00000000000000000 ) ) ;
#27 = FACE_OUTER_BOUND ( 'NONE', #224, .T. ) ;
#28 = ORGANIZATION ( 'UNSPECIFIED', 'UNSPECIFIED', '' ) ;
#29 = CARTESIAN_POINT ( 'NONE',  ( 2.793185071074504318E-15, -9.753943486683406100E-17, 0.7999999999999992673 ) ) ;
#30 = FACE_OUTER_BOUND ( 'NONE', #170, .T. ) ;
#31 = CARTESIAN_POINT ( 'NONE',  ( 0.0000000000000000000, 0.0000000000000000000, 0.0000000000000000000 ) ) ;
#32 = CIRCLE ( 'NONE', #178, 0.1750000000000000167 ) ;
#33 = EDGE_CURVE ( 'NONE', #159, #159, #225, .T. ) ;
#34 = APPROVAL_DATE_TIME ( #197, #125 ) ;
#35 = DIRECTION ( 'NONE',  ( 1.000000000000000000, 0.0000000000000000000, 0.0000000000000000000 ) ) ;
#36 = DATE_TIME_ROLE ( 'creation_date' ) ;
#37 = ORIENTED_EDGE ( 'NONE', *, *, #73, .F. ) ;
#38 = PERSON ( 'UNSPECIFIED', 'UNSPECIFIED', 'UNSPECIFIED', ('UNSPECIFIED'), ('UNSPECIFIED'), ('UNSPECIFIED') ) ;
#39 = AXIS2_PLACEMENT_3D ( 'NONE', #101, #85, #172 ) ;
#40 = DATE_AND_TIME ( #52, #77 ) ;
#41 = APPLICATION_CONTEXT ( 'configuration controlled 3d designs of mechanical parts and assemblies' ) ;
#42 = DIRECTION ( 'NONE',  ( -3.491481338843133355E-15, 1.224646799147353207E-16, -1.000000000000000000 ) ) ;
#43 = FACE_OUTER_BOUND ( 'NONE', #240, .T. ) ;
#44 = DIRECTION ( 'NONE',  ( -3.491481338843133355E-15, 1.224646799147353207E-16, -1.000000000000000000 ) ) ;
#45 = DIRECTION ( 'NONE',  ( 3.491481338843133355E-15, -1.219242935835426903E-16, 1.000000000000000000 ) ) ;
#46 = AXIS2_PLACEMENT_3D ( 'NONE', #29, #119, #6 ) ;
#47 = CARTESIAN_POINT ( 'NONE',  ( 2.793185071074504318E-15, 0.0000000000000000000, 0.7999999999999992673 ) ) ;
#48 = DESIGN_CONTEXT ( 'detailed design', #41, 'design' ) ;
#49 = COORDINATED_UNIVERSAL_TIME_OFFSET ( 1, 0, .AHEAD. ) ;
#50 = CIRCLE ( 'NONE', #39, 0.2431483474218600060 ) ;
#51 = DIRECTION ( 'NONE',  ( 3.491481338843133355E-15, -1.219242935835426903E-16, 1.000000000000000000 ) ) ;
#52 = CALENDAR_DATE ( 2021, 1, 11 ) ;
#53 = CC_DESIGN_PERSON_AND_ORGANIZATION_ASSIGNMENT ( #92, #220, ( #78 ) ) ;
#54 = ORIENTED_EDGE ( 'NONE', *, *, #33, .T. ) ;
#55 = EDGE_LOOP ( 'NONE', ( #15 ) ) ;
#56 = CALENDAR_DATE ( 2021, 1, 11 ) ;
#57 = LOCAL_TIME ( 10, 46, 3.000000000000000000, #49 ) ;
#58 = CARTESIAN_POINT ( 'NONE',  ( 2.097777066722134313E-14, -7.325543576887606549E-16, 6.008272315203641689 ) ) ;
#59 = CIRCLE ( 'NONE', #46, 0.1749999999999999056 ) ;
#60 = DIRECTION ( 'NONE',  ( 3.491481338843133355E-15, -1.224646799147353207E-16, 1.000000000000000000 ) ) ;
#61 = DIRECTION ( 'NONE',  ( 3.491481338843133355E-15, -1.224646799147353207E-16, 1.000000000000000000 ) ) ;
#62 = DIRECTION ( 'NONE',  ( 3.491481338843133355E-15, -1.219242935835426903E-16, 1.000000000000000000 ) ) ;
#63 = AXIS2_PLACEMENT_3D ( 'NONE', #98, #60, #231 ) ;
#64 = FACE_OUTER_BOUND ( 'NONE', #243, .T. ) ;
#65 = EDGE_CURVE ( 'NONE', #140, #140, #50, .T. ) ;
#66 = FACE_BOUND ( 'NONE', #149, .T. ) ;
#67 = CALENDAR_DATE ( 2021, 1, 11 ) ;
#68 = CONICAL_SURFACE ( 'NONE', #118, 2.499999999999992006, 0.2617993877991428575 ) ;
#69 = PERSON_AND_ORGANIZATION ( #38, #28 ) ;
#70 = CC_DESIGN_PERSON_AND_ORGANIZATION_ASSIGNMENT ( #74, #141, ( #78 ) ) ;
#71 = VERTEX_POINT ( 'NONE', #90 ) ;
#72 = ORIENTED_EDGE ( 'NONE', *, *, #10, .T. ) ;
#73 = EDGE_CURVE ( 'NONE', #162, #162, #152, .T. ) ;
#74 = PERSON_AND_ORGANIZATION ( #38, #28 ) ;
#75 = EDGE_LOOP ( 'NONE', ( #183 ) ) ;
#76 = DATE_AND_TIME ( #130, #107 ) ;
#77 = LOCAL_TIME ( 10, 46, 3.000000000000000000, #12 ) ;
#78 = PRODUCT_DEFINITION_FORMATION_WITH_SPECIFIED_SOURCE ( 'ANY', '', #166, .NOT_KNOWN. ) ;
#79 = CC_DESIGN_PERSON_AND_ORGANIZATION_ASSIGNMENT ( #177, #139, ( #166 ) ) ;
#80 = EDGE_LOOP ( 'NONE', ( #147 ) ) ;
#81 = PLANE ( 'NONE',  #63 ) ;
#82 = DIRECTION ( 'NONE',  ( -3.491481338843133355E-15, 1.219242935835426903E-16, -1.000000000000000000 ) ) ;
#83 = PRODUCT_RELATED_PRODUCT_CATEGORY ( 'detail', '', ( #166 ) ) ;
#84 = DIRECTION ( 'NONE',  ( 4.275831445896958607E-31, 1.000000000000000000, 1.224646799147353207E-16 ) ) ;
#85 = DIRECTION ( 'NONE',  ( 3.491481338843133355E-15, -1.219242935835426903E-16, 1.000000000000000000 ) ) ;
#86 = PLANE ( 'NONE',  #121 ) ;
#87 = CARTESIAN_POINT ( 'NONE',  ( 2.793185071074504318E-15, -0.1750000000000000167, 0.7999999999999992673 ) ) ;
#88 =( NAMED_UNIT ( * ) SI_UNIT ( $, .STERADIAN. ) SOLID_ANGLE_UNIT ( ) );
#89 = CC_DESIGN_APPROVAL ( #125, ( #148 ) ) ;
#90 = CARTESIAN_POINT ( 'NONE',  ( 1.316288464743861212E-13, 1.499999999999988232, 37.69999999999999574 ) ) ;
#91 = CARTESIAN_POINT ( 'NONE',  ( 2.097777066722134313E-14, -1.499999999999991118, 6.008272315203641689 ) ) ;
#92 = PERSON_AND_ORGANIZATION ( #38, #28 ) ;
#93 = COORDINATED_UNIVERSAL_TIME_OFFSET ( 1, 0, .AHEAD. ) ;
#94 = AXIS2_PLACEMENT_3D ( 'NONE', #2, #153, #117 ) ;
#95 = ORIENTED_EDGE ( 'NONE', *, *, #168, .T. ) ;
#96 = CONICAL_SURFACE ( 'NONE', #111, 1.199999999999992184, 0.7853981633974468357 ) ;
#97 = FACE_OUTER_BOUND ( 'NONE', #55, .T. ) ;
#98 = CARTESIAN_POINT ( 'NONE',  ( 2.793185071074506290E-15, -1.156482317317874437E-16, 0.7999999999999998224 ) ) ;
#99 = FACE_OUTER_BOUND ( 'NONE', #146, .T. ) ;
#100 = AXIS2_PLACEMENT_3D ( 'NONE', #191, #132, #207 ) ;
#101 = CARTESIAN_POINT ( 'NONE',  ( 4.600508803299760698E-15, -1.606520933470163724E-16, 1.317638090205028201 ) ) ;
#102 = DIRECTION ( 'NONE',  ( 4.275831445896958607E-31, 1.000000000000000000, 1.224646799147353454E-16 ) ) ;
#103 = AXIS2_PLACEMENT_3D ( 'NONE', #47, #45, #151 ) ;
#104 = PERSON_AND_ORGANIZATION ( #38, #28 ) ;
#105 = APPLICATION_PROTOCOL_DEFINITION ( 'international standard', 'config_control_design', 1994, #239 ) ;
#106 = APPROVAL ( #181, 'UNSPECIFIED' ) ;
#107 = LOCAL_TIME ( 10, 46, 3.000000000000000000, #93 ) ;
#108 = CARTESIAN_POINT ( 'NONE',  ( 3.400815641746288355E-14, -1.187582016019498683E-15, 9.740323122772622355 ) ) ;
#109 = EDGE_LOOP ( 'NONE', ( #110 ) ) ;
#110 = ORIENTED_EDGE ( 'NONE', *, *, #73, .T. ) ;
#111 = AXIS2_PLACEMENT_3D ( 'NONE', #26, #7, #227 ) ;
#112 = CARTESIAN_POINT ( 'NONE',  ( 1.326762908760390423E-13, 8.998558695971017012E-33, 38.00000000000000000 ) ) ;
#113 = CLOSED_SHELL ( 'NONE', ( #122, #138, #131 ) ) ;
#114 = ADVANCED_FACE ( 'NONE', ( #43 ), #86, .F. ) ;
#115 = FACE_OUTER_BOUND ( 'NONE', #80, .T. ) ;
#116 = DIRECTION ( 'NONE',  ( 3.491481338843133355E-15, -1.224646799147353207E-16, 1.000000000000000000 ) ) ;
#117 = DIRECTION ( 'NONE',  ( 0.0000000000000000000, 1.000000000000000000, 0.0000000000000000000 ) ) ;
#118 = AXIS2_PLACEMENT_3D ( 'NONE', #108, #51, #14 ) ;
#119 = DIRECTION ( 'NONE',  ( 3.491481338843133355E-15, -1.219242935835426903E-16, 1.000000000000000000 ) ) ;
#120 = CARTESIAN_POINT ( 'NONE',  ( 1.326762908760390423E-13, 1.199999999999987521, 38.00000000000000000 ) ) ;
#121 = AXIS2_PLACEMENT_3D ( 'NONE', #112, #44, #84 ) ;
#122 = ADVANCED_FACE ( 'NONE', ( #192 ), #81, .T. ) ;
#123 =( NAMED_UNIT ( * ) PLANE_ANGLE_UNIT ( ) SI_UNIT ( $, .RADIAN. ) );
#124 = DIRECTION ( 'NONE',  ( 0.0000000000000000000, 0.0000000000000000000, 1.000000000000000000 ) ) ;
#125 = APPROVAL ( #234, 'UNSPECIFIED' ) ;
#126 = CLOSED_SHELL ( 'NONE', ( #185, #195, #114, #228, #158, #154 ) ) ;
#127 = APPROVAL_STATUS ( 'not_yet_approved' ) ;
#128 = DATE_AND_TIME ( #56, #136 ) ;
#129 = CIRCLE ( 'NONE', #217, 1.499999999999990452 ) ;
#130 = CALENDAR_DATE ( 2021, 1, 11 ) ;
#131 = ADVANCED_FACE ( 'NONE', ( #190 ), #211, .F. ) ;
#132 = DIRECTION ( 'NONE',  ( 3.491481338843133355E-15, -1.219242935835426903E-16, 1.000000000000000000 ) ) ;
#133 = DIRECTION ( 'NONE',  ( -3.491481338843133355E-15, 1.224646799147353207E-16, -1.000000000000000000 ) ) ;
#134 = DIRECTION ( 'NONE',  ( -4.275831445896958607E-31, -1.000000000000000000, -1.224646799147353207E-16 ) ) ;
#135 = FACE_OUTER_BOUND ( 'NONE', #22, .T. ) ;
#136 = LOCAL_TIME ( 10, 46, 3.000000000000000000, #188 ) ;
#137 = CARTESIAN_POINT ( 'NONE',  ( 4.600508803299760698E-15, -0.2431483474218601448, 1.317638090205028201 ) ) ;
#138 = ADVANCED_FACE ( 'NONE', ( #27, #99 ), #150, .T. ) ;
#139 = PERSON_AND_ORGANIZATION_ROLE ( 'design_owner' ) ;
#140 = VERTEX_POINT ( 'NONE', #137 ) ;
#141 = PERSON_AND_ORGANIZATION_ROLE ( 'creator' ) ;
#142 = PERSON_AND_ORGANIZATION_ROLE ( 'classification_officer' ) ;
#143 = MANIFOLD_SOLID_BREP ( 'Corps-Déplacer/Copier1[2]', #113 ) ;
#144 = EDGE_LOOP ( 'NONE', ( #221 ) ) ;
#145 = PRODUCT_DEFINITION_SHAPE ( 'NONE', 'NONE',  #148 ) ;
#146 = EDGE_LOOP ( 'NONE', ( #37 ) ) ;
#147 = ORIENTED_EDGE ( 'NONE', *, *, #209, .F. ) ;
#148 = PRODUCT_DEFINITION ( 'UNKNOWN', '', #78, #48 ) ;
#149 = EDGE_LOOP ( 'NONE', ( #23 ) ) ;
#150 = CYLINDRICAL_SURFACE ( 'NONE', #187, 0.1749999999999999611 ) ;
#151 = DIRECTION ( 'NONE',  ( -4.336470827456546043E-31, -1.000000000000000000, -1.219242935835426903E-16 ) ) ;
#152 = CIRCLE ( 'NONE', #100, 0.1749999999999999056 ) ;
#153 = DIRECTION ( 'NONE',  ( -3.491481338843133355E-15, 1.224646799147353207E-16, -1.000000000000000000 ) ) ;
#154 = ADVANCED_FACE ( 'NONE', ( #5 ), #175, .F. ) ;
#155 = DIRECTION ( 'NONE',  ( -4.275831445896958607E-31, -1.000000000000000000, -1.224646799147353207E-16 ) ) ;
#156 = CC_DESIGN_SECURITY_CLASSIFICATION ( #232, ( #78 ) ) ;
#157 = APPROVAL_ROLE ( '' ) ;
#158 = ADVANCED_FACE ( 'NONE', ( #30, #135 ), #241, .F. ) ;
#159 = VERTEX_POINT ( 'NONE', #120 ) ;
#160 = CALENDAR_DATE ( 2021, 1, 11 ) ;
#161 = APPROVAL_PERSON_ORGANIZATION ( #199, #125, #157 ) ;
#162 = VERTEX_POINT ( 'NONE', #196 ) ;
#163 = DATE_TIME_ROLE ( 'classification_date' ) ;
#164 = SHAPE_DEFINITION_REPRESENTATION ( #145, #208 ) ;
#165 = EDGE_CURVE ( 'NONE', #219, #219, #32, .T. ) ;
#166 = PRODUCT ( '950699', '950699', '', ( #235 ) ) ;
#167 = ORIENTED_EDGE ( 'NONE', *, *, #33, .F. ) ;
#168 = EDGE_CURVE ( 'NONE', #218, #218, #59, .T. ) ;
#169 = AXIS2_PLACEMENT_3D ( 'NONE', #3, #61, #134 ) ;
#170 = EDGE_LOOP ( 'NONE', ( #95 ) ) ;
#171 = CARTESIAN_POINT ( 'NONE',  ( 1.316288464743861212E-13, -4.616918432785521081E-15, 37.69999999999999574 ) ) ;
#172 = DIRECTION ( 'NONE',  ( 0.0000000000000000000, -1.000000000000000000, 0.0000000000000000000 ) ) ;
#173 = CARTESIAN_POINT ( 'NONE',  ( 0.0000000000000000000, 0.0000000000000000000, 0.0000000000000000000 ) ) ;
#174 = CC_DESIGN_PERSON_AND_ORGANIZATION_ASSIGNMENT ( #223, #142, ( #232 ) ) ;
#175 = PLANE ( 'NONE',  #169 ) ;
#176 = FACE_BOUND ( 'NONE', #186, .T. ) ;
#177 = PERSON_AND_ORGANIZATION ( #38, #28 ) ;
#178 = AXIS2_PLACEMENT_3D ( 'NONE', #193, #213, #233 ) ;
#179 = COORDINATED_UNIVERSAL_TIME_OFFSET ( 1, 0, .AHEAD. ) ;
#180 = APPLICATION_PROTOCOL_DEFINITION ( 'international standard', 'config_control_design', 1994, #41 ) ;
#181 = APPROVAL_STATUS ( 'not_yet_approved' ) ;
#182 = APPROVAL_ROLE ( '' ) ;
#183 = ORIENTED_EDGE ( 'NONE', *, *, #209, .T. ) ;
#184 = CC_DESIGN_DATE_AND_TIME_ASSIGNMENT ( #237, #36, ( #148 ) ) ;
#185 = ADVANCED_FACE ( 'NONE', ( #64, #115 ), #194, .T. ) ;
#186 = EDGE_LOOP ( 'NONE', ( #54 ) ) ;
#187 = AXIS2_PLACEMENT_3D ( 'NONE', #173, #62, #230 ) ;
#188 = COORDINATED_UNIVERSAL_TIME_OFFSET ( 1, 0, .AHEAD. ) ;
#189 = APPROVAL_ROLE ( '' ) ;
#190 = FACE_OUTER_BOUND ( 'NONE', #144, .T. ) ;
#191 = CARTESIAN_POINT ( 'NONE',  ( 2.793185071074504318E-15, -9.753943486683406100E-17, 0.7999999999999992673 ) ) ;
#192 = FACE_OUTER_BOUND ( 'NONE', #109, .T. ) ;
#193 = CARTESIAN_POINT ( 'NONE',  ( -4.564130424497818020E-30, 1.593817419669883302E-31, -1.307218908410404421E-15 ) ) ;
#194 = CYLINDRICAL_SURFACE ( 'NONE', #17, 1.499999999999990452 ) ;
#195 = ADVANCED_FACE ( 'NONE', ( #97, #176 ), #96, .T. ) ;
#196 = CARTESIAN_POINT ( 'NONE',  ( 2.793185071074504318E-15, -0.1750000000000000167, 0.7999999999999992673 ) ) ;
#197 = DATE_AND_TIME ( #67, #57 ) ;
#198 = CIRCLE ( 'NONE', #206, 1.499999999999992895 ) ;
#199 = PERSON_AND_ORGANIZATION ( #38, #28 ) ;
#200 =( LENGTH_UNIT ( ) NAMED_UNIT ( * ) SI_UNIT ( .MILLI., .METRE. ) );
#201 = CC_DESIGN_APPROVAL ( #20, ( #232 ) ) ;
#202 = PERSON_AND_ORGANIZATION ( #38, #28 ) ;
#203 = APPROVAL_DATE_TIME ( #128, #20 ) ;
#204 = CC_DESIGN_DATE_AND_TIME_ASSIGNMENT ( #76, #163, ( #232 ) ) ;
#205 = CARTESIAN_POINT ( 'NONE',  ( 0.0000000000000000000, 0.0000000000000000000, 0.0000000000000000000 ) ) ;
#206 = AXIS2_PLACEMENT_3D ( 'NONE', #171, #133, #210 ) ;
#207 = DIRECTION ( 'NONE',  ( 0.0000000000000000000, -1.000000000000000000, 0.0000000000000000000 ) ) ;
#208 = ADVANCED_BREP_SHAPE_REPRESENTATION ( '950699', ( #222, #143, #238 ), #4 ) ;
#209 = EDGE_CURVE ( 'NONE', #215, #215, #129, .T. ) ;
#210 = DIRECTION ( 'NONE',  ( 0.0000000000000000000, 1.000000000000000000, 0.0000000000000000000 ) ) ;
#211 = PLANE ( 'NONE',  #24 ) ;
#212 = CC_DESIGN_APPROVAL ( #106, ( #78 ) ) ;
#213 = DIRECTION ( 'NONE',  ( 3.491481338843133355E-15, -1.219242935835426903E-16, 1.000000000000000000 ) ) ;
#214 = APPROVAL_PERSON_ORGANIZATION ( #69, #106, #182 ) ;
#215 = VERTEX_POINT ( 'NONE', #91 ) ;
#216 = FACE_OUTER_BOUND ( 'NONE', #75, .T. ) ;
#217 = AXIS2_PLACEMENT_3D ( 'NONE', #58, #82, #229 ) ;
#218 = VERTEX_POINT ( 'NONE', #87 ) ;
#219 = VERTEX_POINT ( 'NONE', #8 ) ;
#220 = PERSON_AND_ORGANIZATION_ROLE ( 'design_supplier' ) ;
#221 = ORIENTED_EDGE ( 'NONE', *, *, #165, .F. ) ;
#222 = MANIFOLD_SOLID_BREP ( 'Corps-Déplacer/Copier1[1]', #126 ) ;
#223 = PERSON_AND_ORGANIZATION ( #38, #28 ) ;
#224 = EDGE_LOOP ( 'NONE', ( #16 ) ) ;
#225 = CIRCLE ( 'NONE', #94, 1.199999999999992184 ) ;
#226 = ORIENTED_EDGE ( 'NONE', *, *, #168, .F. ) ;
#227 = DIRECTION ( 'NONE',  ( 0.0000000000000000000, 1.000000000000000000, 0.0000000000000000000 ) ) ;
#228 = ADVANCED_FACE ( 'NONE', ( #66, #216 ), #68, .T. ) ;
#229 = DIRECTION ( 'NONE',  ( 0.0000000000000000000, -1.000000000000000000, 0.0000000000000000000 ) ) ;
#230 = DIRECTION ( 'NONE',  ( -4.256963957985709765E-31, -1.000000000000000000, -1.219242935835426903E-16 ) ) ;
#231 = DIRECTION ( 'NONE',  ( -4.275831445896958607E-31, -1.000000000000000000, -1.224646799147353207E-16 ) ) ;
#232 = SECURITY_CLASSIFICATION ( '', '', #18 ) ;
#233 = DIRECTION ( 'NONE',  ( -4.256963957985700131E-31, -1.000000000000000000, -1.219242935835430354E-16 ) ) ;
#234 = APPROVAL_STATUS ( 'not_yet_approved' ) ;
#235 = MECHANICAL_CONTEXT ( 'NONE', #239, 'mechanical' ) ;
#236 = CC_DESIGN_PERSON_AND_ORGANIZATION_ASSIGNMENT ( #104, #11, ( #148 ) ) ;
#237 = DATE_AND_TIME ( #160, #13 ) ;
#238 = AXIS2_PLACEMENT_3D ( 'NONE', #31, #124, #35 ) ;
#239 = APPLICATION_CONTEXT ( 'configuration controlled 3d designs of mechanical parts and assemblies' ) ;
#240 = EDGE_LOOP ( 'NONE', ( #167 ) ) ;
#241 = TOROIDAL_SURFACE ( 'NONE', #103, 2.174999999999999822, 2.000000000000000000 ) ;
#242 = ORIENTED_EDGE ( 'NONE', *, *, #65, .F. ) ;
#243 = EDGE_LOOP ( 'NONE', ( #72 ) ) ;
ENDSEC;
END-ISO-10303-21;
