ISO-10303-21;
HEADER;
FILE_DESCRIPTION (( 'STEP AP203' ),
    '1' );
FILE_NAME ('950045.step',
    '2021-11-01T12:23:52',
    ( '' ),
    ( '' ),
    'SwSTEP 2.0',
    'SolidWorks 2019',
    '' );
FILE_SCHEMA (( 'CONFIG_CONTROL_DESIGN' ));
ENDSEC;

DATA;
#1 = DATE_TIME_ROLE ( 'creation_date' ) ;
#2 = PERSON_AND_ORGANIZATION ( #139, #103 ) ;
#3 = DATE_AND_TIME ( #110, #16 ) ;
#4 = APPROVAL_DATE_TIME ( #77, #89 ) ;
#5 = CYLINDRICAL_SURFACE ( 'NONE', #40, 1.499999999999994893 ) ;
#6 = ORIENTED_EDGE ( 'NONE', *, *, #180, .F. ) ;
#7 = ORIENTED_EDGE ( 'NONE', *, *, #180, .T. ) ;
#8 = AXIS2_PLACEMENT_3D ( 'NONE', #75, #124, #159 ) ;
#9 = CARTESIAN_POINT ( 'NONE',  ( 1.675911042644703379E-14, -5.892085531227123306E-16, 4.799999999999998934 ) ) ;
#10 = FACE_OUTER_BOUND ( 'NONE', #114, .T. ) ;
#11 = DIRECTION ( 'NONE',  ( 3.491481338843133355E-15, -1.224646799147353207E-16, 1.000000000000000000 ) ) ;
#12 = ADVANCED_FACE ( 'NONE', ( #198, #152 ), #222, .T. ) ;
#13 = VERTEX_POINT ( 'NONE', #171 ) ;
#14 = APPLICATION_PROTOCOL_DEFINITION ( 'international standard', 'config_control_design', 1994, #169 ) ;
#15 = COORDINATED_UNIVERSAL_TIME_OFFSET ( 1, 0, .AHEAD. ) ;
#16 = LOCAL_TIME ( 13, 23, 52.00000000000000000, #59 ) ;
#17 = APPROVAL_DATE_TIME ( #191, #121 ) ;
#18 = EDGE_LOOP ( 'NONE', ( #209 ) ) ;
#19 =( NAMED_UNIT ( * ) PLANE_ANGLE_UNIT ( ) SI_UNIT ( $, .RADIAN. ) );
#20 = DIRECTION ( 'NONE',  ( 0.0000000000000000000, -1.000000000000000000, 0.0000000000000000000 ) ) ;
#21 = CARTESIAN_POINT ( 'NONE',  ( -3.428684446524520609E-31, -1.049468268505620488E-32, -9.820142552045201813E-17 ) ) ;
#22 = EDGE_CURVE ( 'NONE', #57, #57, #47, .T. ) ;
#23 = DIRECTION ( 'NONE',  ( 0.0000000000000000000, 1.000000000000000000, 0.0000000000000000000 ) ) ;
#24 = ORIENTED_EDGE ( 'NONE', *, *, #22, .F. ) ;
#25 = APPROVAL_DATE_TIME ( #215, #72 ) ;
#26 = ADVANCED_FACE ( 'NONE', ( #165, #120 ), #5, .T. ) ;
#27 = DIRECTION ( 'NONE',  ( 0.0000000000000000000, 1.000000000000000000, 0.0000000000000000000 ) ) ;
#28 = PRODUCT_DEFINITION_SHAPE ( 'NONE', 'NONE',  #30 ) ;
#29 = DIRECTION ( 'NONE',  ( -3.491481338843133355E-15, 1.227517819005651059E-16, -1.000000000000000000 ) ) ;
#30 = PRODUCT_DEFINITION ( 'UNKNOWN', '', #84, #45 ) ;
#31 = DIRECTION ( 'NONE',  ( 3.491481338843133355E-15, -1.224646799147353207E-16, 1.000000000000000000 ) ) ;
#32 = CARTESIAN_POINT ( 'NONE',  ( 1.675911042644703379E-14, -0.7999999999999997113, 4.799999999999998934 ) ) ;
#33 = AXIS2_PLACEMENT_3D ( 'NONE', #54, #31, #122 ) ;
#34 = VERTEX_POINT ( 'NONE', #109 ) ;
#35 = ADVANCED_FACE ( 'NONE', ( #83 ), #210, .T. ) ;
#36 = COORDINATED_UNIVERSAL_TIME_OFFSET ( 1, 0, .AHEAD. ) ;
#37 = PRODUCT ( '950045', '950045', '', ( #98 ) ) ;
#38 = DIRECTION ( 'NONE',  ( 1.000000000000000000, 0.0000000000000000000, 0.0000000000000000000 ) ) ;
#39 = AXIS2_PLACEMENT_3D ( 'NONE', #117, #149, #23 ) ;
#40 = AXIS2_PLACEMENT_3D ( 'NONE', #87, #97, #138 ) ;
#41 = PERSON_AND_ORGANIZATION_ROLE ( 'classification_officer' ) ;
#42 = LOCAL_TIME ( 13, 23, 52.00000000000000000, #15 ) ;
#43 = ORIENTED_EDGE ( 'NONE', *, *, #100, .T. ) ;
#44 = PERSON_AND_ORGANIZATION ( #139, #103 ) ;
#45 = DESIGN_CONTEXT ( 'detailed design', #155, 'design' ) ;
#46 = DIRECTION ( 'NONE',  ( 3.491481338843133355E-15, -1.224646799147353207E-16, 1.000000000000000000 ) ) ;
#47 = CIRCLE ( 'NONE', #92, 0.7999999999999994893 ) ;
#48 = EDGE_LOOP ( 'NONE', ( #153 ) ) ;
#49 = EDGE_LOOP ( 'NONE', ( #151 ) ) ;
#50 = PLANE ( 'NONE',  #95 ) ;
#51 = MANIFOLD_SOLID_BREP ( 'Corps-Déplacer/Copier1[2]', #65 ) ;
#52 = PLANE ( 'NONE',  #33 ) ;
#53 = CC_DESIGN_APPROVAL ( #72, ( #132 ) ) ;
#54 = CARTESIAN_POINT ( 'NONE',  ( -8.551680453529350800E-31, 2.999525725151307090E-32, -2.449298628175645296E-16 ) ) ;
#55 = CC_DESIGN_DATE_AND_TIME_ASSIGNMENT ( #3, #1, ( #30 ) ) ;
#56 = DIRECTION ( 'NONE',  ( -4.349082449591986113E-31, -1.000000000000000000, -1.227517819005651059E-16 ) ) ;
#57 = VERTEX_POINT ( 'NONE', #190 ) ;
#58 = CIRCLE ( 'NONE', #76, 0.7999999999999991562 ) ;
#59 = COORDINATED_UNIVERSAL_TIME_OFFSET ( 1, 0, .AHEAD. ) ;
#60 = CARTESIAN_POINT ( 'NONE',  ( 0.0000000000000000000, 0.0000000000000000000, 0.0000000000000000000 ) ) ;
#61 = DATE_AND_TIME ( #172, #158 ) ;
#62 = DIRECTION ( 'NONE',  ( -3.491481338843133355E-15, 1.224646799147353207E-16, -1.000000000000000000 ) ) ;
#63 = EDGE_LOOP ( 'NONE', ( #216 ) ) ;
#64 = CC_DESIGN_PERSON_AND_ORGANIZATION_ASSIGNMENT ( #178, #41, ( #132 ) ) ;
#65 = CLOSED_SHELL ( 'NONE', ( #35, #223, #160 ) ) ;
#66 = ORIENTED_EDGE ( 'NONE', *, *, #100, .F. ) ;
#67 = SHAPE_DEFINITION_REPRESENTATION ( #28, #188 ) ;
#68 = AXIS2_PLACEMENT_3D ( 'NONE', #118, #214, #102 ) ;
#69 = EDGE_LOOP ( 'NONE', ( #6 ) ) ;
#70 = EDGE_LOOP ( 'NONE', ( #7 ) ) ;
#71 = CALENDAR_DATE ( 2021, 1, 11 ) ;
#72 = APPROVAL ( #176, 'UNSPECIFIED' ) ;
#73 = AXIS2_PLACEMENT_3D ( 'NONE', #168, #11, #196 ) ;
#74 = CARTESIAN_POINT ( 'NONE',  ( 2.818537986016578356E-14, 1.499999999999994449, 8.072613634390702231 ) ) ;
#75 = CARTESIAN_POINT ( 'NONE',  ( -6.413731847436034514E-31, 0.0000000000000000000, -1.836965810494968570E-16 ) ) ;
#76 = AXIS2_PLACEMENT_3D ( 'NONE', #9, #154, #20 ) ;
#77 = DATE_AND_TIME ( #162, #42 ) ;
#78 = PERSON_AND_ORGANIZATION_ROLE ( 'creator' ) ;
#79 = DATE_TIME_ROLE ( 'classification_date' ) ;
#80 = CARTESIAN_POINT ( 'NONE',  ( 1.326762908760390423E-13, 8.998558695971051224E-33, 38.00000000000000000 ) ) ;
#81 = EDGE_CURVE ( 'NONE', #189, #189, #203, .T. ) ;
#82 = APPLICATION_PROTOCOL_DEFINITION ( 'international standard', 'config_control_design', 1994, #155 ) ;
#83 = FACE_OUTER_BOUND ( 'NONE', #63, .T. ) ;
#84 = PRODUCT_DEFINITION_FORMATION_WITH_SPECIFIED_SOURCE ( 'ANY', '', #37, .NOT_KNOWN. ) ;
#85 = EDGE_LOOP ( 'NONE', ( #43 ) ) ;
#86 = ADVANCED_FACE ( 'NONE', ( #200 ), #50, .F. ) ;
#87 = CARTESIAN_POINT ( 'NONE',  ( 0.0000000000000000000, 0.0000000000000000000, 0.0000000000000000000 ) ) ;
#88 = LOCAL_TIME ( 13, 23, 52.00000000000000000, #192 ) ;
#89 = APPROVAL ( #130, 'UNSPECIFIED' ) ;
#90 = FACE_OUTER_BOUND ( 'NONE', #136, .T. ) ;
#91 = CYLINDRICAL_SURFACE ( 'NONE', #8, 0.7999999999999992673 ) ;
#92 = AXIS2_PLACEMENT_3D ( 'NONE', #21, #199, #137 ) ;
#93 = CIRCLE ( 'NONE', #128, 1.199999999999996403 ) ;
#94 = TOROIDAL_SURFACE ( 'NONE', #212, 8.799999999999998934, 8.000000000000000000 ) ;
#95 = AXIS2_PLACEMENT_3D ( 'NONE', #80, #185, #105 ) ;
#96 = PERSON_AND_ORGANIZATION ( #139, #103 ) ;
#97 = DIRECTION ( 'NONE',  ( -3.491481338843133355E-15, 1.224646799147353207E-16, -1.000000000000000000 ) ) ;
#98 = MECHANICAL_CONTEXT ( 'NONE', #169, 'mechanical' ) ;
#99 = CC_DESIGN_APPROVAL ( #121, ( #30 ) ) ;
#100 = EDGE_CURVE ( 'NONE', #127, #127, #58, .T. ) ;
#101 = CARTESIAN_POINT ( 'NONE',  ( 1.316288464743861212E-13, -4.616918432785521081E-15, 37.69999999999999574 ) ) ;
#102 = DIRECTION ( 'NONE',  ( 0.0000000000000000000, -1.000000000000000000, 0.0000000000000000000 ) ) ;
#103 = ORGANIZATION ( 'UNSPECIFIED', 'UNSPECIFIED', '' ) ;
#104 = EDGE_CURVE ( 'NONE', #34, #34, #213, .T. ) ;
#105 = DIRECTION ( 'NONE',  ( 4.275831445896958607E-31, 1.000000000000000000, 1.224646799147353207E-16 ) ) ;
#106 = CC_DESIGN_PERSON_AND_ORGANIZATION_ASSIGNMENT ( #193, #134, ( #84 ) ) ;
#107 = PLANE ( 'NONE',  #73 ) ;
#108 = EDGE_CURVE ( 'NONE', #13, #13, #93, .T. ) ;
#109 = CARTESIAN_POINT ( 'NONE',  ( 1.316288464743861212E-13, 1.499999999999992228, 37.69999999999999574 ) ) ;
#110 = CALENDAR_DATE ( 2021, 1, 11 ) ;
#111 = AXIS2_PLACEMENT_3D ( 'NONE', #101, #62, #133 ) ;
#112 = DIRECTION ( 'NONE',  ( -4.275831445896958607E-31, -1.000000000000000000, -1.224646799147353207E-16 ) ) ;
#113 = SECURITY_CLASSIFICATION_LEVEL ( 'unclassified' ) ;
#114 = EDGE_LOOP ( 'NONE', ( #167 ) ) ;
#115 = UNCERTAINTY_MEASURE_WITH_UNIT (LENGTH_MEASURE( 1.000000000000000082E-05 ), #143, 'distance_accuracy_value', 'NONE');
#116 = CC_DESIGN_SECURITY_CLASSIFICATION ( #132, ( #84 ) ) ;
#117 = CARTESIAN_POINT ( 'NONE',  ( 1.326762908760390423E-13, -4.653657836759941941E-15, 38.00000000000000000 ) ) ;
#118 = CARTESIAN_POINT ( 'NONE',  ( 1.675911042644703379E-14, -5.892085531227123306E-16, 4.799999999999998934 ) ) ;
#119 = CC_DESIGN_DATE_AND_TIME_ASSIGNMENT ( #61, #79, ( #132 ) ) ;
#120 = FACE_OUTER_BOUND ( 'NONE', #69, .T. ) ;
#121 = APPROVAL ( #150, 'UNSPECIFIED' ) ;
#122 = DIRECTION ( 'NONE',  ( -4.275831445896958607E-31, -1.000000000000000000, -1.224646799147353207E-16 ) ) ;
#123 = AXIS2_PLACEMENT_3D ( 'NONE', #187, #29, #27 ) ;
#124 = DIRECTION ( 'NONE',  ( 3.491481338843133355E-15, -1.227517819005651059E-16, 1.000000000000000000 ) ) ;
#125 = FACE_OUTER_BOUND ( 'NONE', #184, .T. ) ;
#126 = MANIFOLD_SOLID_BREP ( 'Corps-Déplacer/Copier1[1]', #211 ) ;
#127 = VERTEX_POINT ( 'NONE', #32 ) ;
#128 = AXIS2_PLACEMENT_3D ( 'NONE', #197, #177, #202 ) ;
#129 =( NAMED_UNIT ( * ) SI_UNIT ( $, .STERADIAN. ) SOLID_ANGLE_UNIT ( ) );
#130 = APPROVAL_STATUS ( 'not_yet_approved' ) ;
#131 = APPROVAL_PERSON_ORGANIZATION ( #96, #121, #163 ) ;
#132 = SECURITY_CLASSIFICATION ( '', '', #113 ) ;
#133 = DIRECTION ( 'NONE',  ( 0.0000000000000000000, 1.000000000000000000, 0.0000000000000000000 ) ) ;
#134 = PERSON_AND_ORGANIZATION_ROLE ( 'design_supplier' ) ;
#135 = CARTESIAN_POINT ( 'NONE',  ( 1.675911042644703695E-14, 1.124819836996386911E-32, 4.799999999999999822 ) ) ;
#136 = EDGE_LOOP ( 'NONE', ( #66 ) ) ;
#137 = DIRECTION ( 'NONE',  ( -4.285855558155653280E-31, -1.000000000000000000, -1.227517819005651059E-16 ) ) ;
#138 = DIRECTION ( 'NONE',  ( 4.275831445896958607E-31, 1.000000000000000000, 1.224646799147353207E-16 ) ) ;
#139 = PERSON ( 'UNSPECIFIED', 'UNSPECIFIED', 'UNSPECIFIED', ('UNSPECIFIED'), ('UNSPECIFIED'), ('UNSPECIFIED') ) ;
#140 = DIRECTION ( 'NONE',  ( 3.491481338843133355E-15, -1.227517819005651059E-16, 1.000000000000000000 ) ) ;
#141 = CARTESIAN_POINT ( 'NONE',  ( 1.675911042644703379E-14, 0.0000000000000000000, 4.799999999999998934 ) ) ;
#142 = CC_DESIGN_PERSON_AND_ORGANIZATION_ASSIGNMENT ( #2, #78, ( #84 ) ) ;
#143 =( LENGTH_UNIT ( ) NAMED_UNIT ( * ) SI_UNIT ( .MILLI., .METRE. ) );
#144 = PERSON_AND_ORGANIZATION ( #139, #103 ) ;
#145 = PERSON_AND_ORGANIZATION_ROLE ( 'creator' ) ;
#146 = CC_DESIGN_PERSON_AND_ORGANIZATION_ASSIGNMENT ( #144, #145, ( #30 ) ) ;
#147 = LOCAL_TIME ( 13, 23, 52.00000000000000000, #183 ) ;
#148 = DIRECTION ( 'NONE',  ( 0.0000000000000000000, 0.0000000000000000000, 1.000000000000000000 ) ) ;
#149 = DIRECTION ( 'NONE',  ( -3.491481338843133355E-15, 1.224646799147353207E-16, -1.000000000000000000 ) ) ;
#150 = APPROVAL_STATUS ( 'not_yet_approved' ) ;
#151 = ORIENTED_EDGE ( 'NONE', *, *, #108, .T. ) ;
#152 = FACE_BOUND ( 'NONE', #49, .T. ) ;
#153 = ORIENTED_EDGE ( 'NONE', *, *, #81, .F. ) ;
#154 = DIRECTION ( 'NONE',  ( 3.491481338843133355E-15, -1.227517819005651059E-16, 1.000000000000000000 ) ) ;
#155 = APPLICATION_CONTEXT ( 'configuration controlled 3d designs of mechanical parts and assemblies' ) ;
#156 = FACE_OUTER_BOUND ( 'NONE', #70, .T. ) ;
#157 = ADVANCED_FACE ( 'NONE', ( #217, #156 ), #94, .F. ) ;
#158 = LOCAL_TIME ( 13, 23, 52.00000000000000000, #36 ) ;
#159 = DIRECTION ( 'NONE',  ( -4.285855558155653280E-31, -1.000000000000000000, -1.227517819005650812E-16 ) ) ;
#160 = ADVANCED_FACE ( 'NONE', ( #125 ), #52, .F. ) ;
#161 = PERSON_AND_ORGANIZATION_ROLE ( 'design_owner' ) ;
#162 = CALENDAR_DATE ( 2021, 1, 11 ) ;
#163 = APPROVAL_ROLE ( '' ) ;
#164 = ORIENTED_EDGE ( 'NONE', *, *, #104, .T. ) ;
#165 = FACE_OUTER_BOUND ( 'NONE', #182, .T. ) ;
#166 = EDGE_LOOP ( 'NONE', ( #181 ) ) ;
#167 = ORIENTED_EDGE ( 'NONE', *, *, #22, .T. ) ;
#168 = CARTESIAN_POINT ( 'NONE',  ( 1.675911042644703695E-14, 1.124819836996386911E-32, 4.799999999999999822 ) ) ;
#169 = APPLICATION_CONTEXT ( 'configuration controlled 3d designs of mechanical parts and assemblies' ) ;
#170 = AXIS2_PLACEMENT_3D ( 'NONE', #60, #148, #38 ) ;
#171 = CARTESIAN_POINT ( 'NONE',  ( 1.326762908760390423E-13, 1.199999999999991962, 38.00000000000000000 ) ) ;
#172 = CALENDAR_DATE ( 2021, 1, 11 ) ;
#173 = APPROVAL_ROLE ( '' ) ;
#174 = CIRCLE ( 'NONE', #123, 1.499999999999994893 ) ;
#175 = CALENDAR_DATE ( 2021, 1, 11 ) ;
#176 = APPROVAL_STATUS ( 'not_yet_approved' ) ;
#177 = DIRECTION ( 'NONE',  ( -3.491481338843133355E-15, 1.224646799147353207E-16, -1.000000000000000000 ) ) ;
#178 = PERSON_AND_ORGANIZATION ( #139, #103 ) ;
#179 = AXIS2_PLACEMENT_3D ( 'NONE', #135, #46, #112 ) ;
#180 = EDGE_CURVE ( 'NONE', #221, #221, #174, .T. ) ;
#181 = ORIENTED_EDGE ( 'NONE', *, *, #108, .F. ) ;
#182 = EDGE_LOOP ( 'NONE', ( #164 ) ) ;
#183 = COORDINATED_UNIVERSAL_TIME_OFFSET ( 1, 0, .AHEAD. ) ;
#184 = EDGE_LOOP ( 'NONE', ( #24 ) ) ;
#185 = DIRECTION ( 'NONE',  ( -3.491481338843133355E-15, 1.224646799147353207E-16, -1.000000000000000000 ) ) ;
#186 = CC_DESIGN_PERSON_AND_ORGANIZATION_ASSIGNMENT ( #44, #161, ( #37 ) ) ;
#187 = CARTESIAN_POINT ( 'NONE',  ( 2.818537986016578356E-14, -4.017191550935433748E-16, 8.072613634390702231 ) ) ;
#188 = ADVANCED_BREP_SHAPE_REPRESENTATION ( '950045', ( #126, #51, #170 ), #194 ) ;
#189 = VERTEX_POINT ( 'NONE', #219 ) ;
#190 = CARTESIAN_POINT ( 'NONE',  ( -6.857368893049041218E-31, -0.7999999999999994893, -1.964028510409040363E-16 ) ) ;
#191 = DATE_AND_TIME ( #175, #88 ) ;
#192 = COORDINATED_UNIVERSAL_TIME_OFFSET ( 1, 0, .AHEAD. ) ;
#193 = PERSON_AND_ORGANIZATION ( #139, #103 ) ;
#194 =( GEOMETRIC_REPRESENTATION_CONTEXT ( 3 ) GLOBAL_UNCERTAINTY_ASSIGNED_CONTEXT ( ( #115 ) ) GLOBAL_UNIT_ASSIGNED_CONTEXT ( ( #143, #19, #129 ) ) REPRESENTATION_CONTEXT ( 'NONE', 'WORKASPACE' ) );
#195 = PERSON_AND_ORGANIZATION ( #139, #103 ) ;
#196 = DIRECTION ( 'NONE',  ( -4.275831445896958607E-31, -1.000000000000000000, -1.224646799147353207E-16 ) ) ;
#197 = CARTESIAN_POINT ( 'NONE',  ( 1.326762908760390423E-13, -4.653657836759941941E-15, 38.00000000000000000 ) ) ;
#198 = FACE_OUTER_BOUND ( 'NONE', #18, .T. ) ;
#199 = DIRECTION ( 'NONE',  ( 3.491481338843133355E-15, -1.227517819005651059E-16, 1.000000000000000000 ) ) ;
#200 = FACE_OUTER_BOUND ( 'NONE', #166, .T. ) ;
#201 = FACE_OUTER_BOUND ( 'NONE', #48, .T. ) ;
#202 = DIRECTION ( 'NONE',  ( 0.0000000000000000000, 1.000000000000000000, 0.0000000000000000000 ) ) ;
#203 = CIRCLE ( 'NONE', #68, 0.7999999999999991562 ) ;
#204 = APPROVAL_PERSON_ORGANIZATION ( #207, #89, #173 ) ;
#205 = PRODUCT_RELATED_PRODUCT_CATEGORY ( 'detail', '', ( #37 ) ) ;
#206 = APPROVAL_ROLE ( '' ) ;
#207 = PERSON_AND_ORGANIZATION ( #139, #103 ) ;
#208 = APPROVAL_PERSON_ORGANIZATION ( #195, #72, #206 ) ;
#209 = ORIENTED_EDGE ( 'NONE', *, *, #104, .F. ) ;
#210 = PLANE ( 'NONE',  #179 ) ;
#211 = CLOSED_SHELL ( 'NONE', ( #26, #12, #86, #157, #220 ) ) ;
#212 = AXIS2_PLACEMENT_3D ( 'NONE', #141, #140, #56 ) ;
#213 = CIRCLE ( 'NONE', #111, 1.499999999999996669 ) ;
#214 = DIRECTION ( 'NONE',  ( 3.491481338843133355E-15, -1.227517819005651059E-16, 1.000000000000000000 ) ) ;
#215 = DATE_AND_TIME ( #71, #147 ) ;
#216 = ORIENTED_EDGE ( 'NONE', *, *, #81, .T. ) ;
#217 = FACE_OUTER_BOUND ( 'NONE', #85, .T. ) ;
#218 = CC_DESIGN_APPROVAL ( #89, ( #84 ) ) ;
#219 = CARTESIAN_POINT ( 'NONE',  ( 1.675911042644703379E-14, -0.7999999999999997113, 4.799999999999998934 ) ) ;
#220 = ADVANCED_FACE ( 'NONE', ( #90 ), #107, .F. ) ;
#221 = VERTEX_POINT ( 'NONE', #74 ) ;
#222 = CONICAL_SURFACE ( 'NONE', #39, 1.199999999999996403, 0.7853981633974461696 ) ;
#223 = ADVANCED_FACE ( 'NONE', ( #10, #201 ), #91, .T. ) ;
ENDSEC;
END-ISO-10303-21;
