ISO-10303-21;
HEADER;
FILE_DESCRIPTION (( 'STEP AP203' ),
    '1' );
FILE_NAME ('950044.step',
    '2021-11-01T12:23:51',
    ( '' ),
    ( '' ),
    'SwSTEP 2.0',
    'SolidWorks 2019',
    '' );
FILE_SCHEMA (( 'CONFIG_CONTROL_DESIGN' ));
ENDSEC;

DATA;
#1 = CARTESIAN_POINT ( 'NONE',  ( 1.361677722148822009E-14, 1.124819836996387048E-32, 3.899999999999999911 ) ) ;
#2 = ORIENTED_EDGE ( 'NONE', *, *, #13, .T. ) ;
#3 = DIRECTION ( 'NONE',  ( 0.0000000000000000000, 1.000000000000000000, 0.0000000000000000000 ) ) ;
#4 = COORDINATED_UNIVERSAL_TIME_OFFSET ( 1, 0, .AHEAD. ) ;
#5 = AXIS2_PLACEMENT_3D ( 'NONE', #216, #58, #148 ) ;
#6 = APPROVAL_PERSON_ORGANIZATION ( #142, #170, #194 ) ;
#7 = APPROVAL_DATE_TIME ( #159, #208 ) ;
#8 = DATE_AND_TIME ( #174, #108 ) ;
#9 = PLANE ( 'NONE',  #5 ) ;
#10 = DIRECTION ( 'NONE',  ( 0.0000000000000000000, -1.000000000000000000, 0.0000000000000000000 ) ) ;
#11 = ADVANCED_FACE ( 'NONE', ( #111 ), #20, .F. ) ;
#12 = PRODUCT_DEFINITION_SHAPE ( 'NONE', 'NONE',  #221 ) ;
#13 = EDGE_CURVE ( 'NONE', #79, #79, #150, .T. ) ;
#14 = ORIENTED_EDGE ( 'NONE', *, *, #138, .T. ) ;
#15 = DIRECTION ( 'NONE',  ( 3.491481338843133355E-15, -1.227517819005651059E-16, 1.000000000000000000 ) ) ;
#16 = FACE_OUTER_BOUND ( 'NONE', #154, .T. ) ;
#17 = CC_DESIGN_APPROVAL ( #208, ( #198 ) ) ;
#18 = PERSON_AND_ORGANIZATION ( #128, #45 ) ;
#19 = COORDINATED_UNIVERSAL_TIME_OFFSET ( 1, 0, .AHEAD. ) ;
#20 = PLANE ( 'NONE',  #96 ) ;
#21 = APPROVAL_STATUS ( 'not_yet_approved' ) ;
#22 = CALENDAR_DATE ( 2021, 1, 11 ) ;
#23 = DATE_AND_TIME ( #197, #127 ) ;
#24 = EDGE_CURVE ( 'NONE', #28, #28, #66, .T. ) ;
#25 = AXIS2_PLACEMENT_3D ( 'NONE', #92, #54, #123 ) ;
#26 = FACE_OUTER_BOUND ( 'NONE', #129, .T. ) ;
#27 = DIRECTION ( 'NONE',  ( 3.491481338843133355E-15, -1.227517819005651059E-16, 1.000000000000000000 ) ) ;
#28 = VERTEX_POINT ( 'NONE', #113 ) ;
#29 = VERTEX_POINT ( 'NONE', #30 ) ;
#30 = CARTESIAN_POINT ( 'NONE',  ( 1.361677722148821693E-14, -0.6500000000000003553, 3.899999999999999023 ) ) ;
#31 = CC_DESIGN_SECURITY_CLASSIFICATION ( #198, ( #46 ) ) ;
#32 = VERTEX_POINT ( 'NONE', #103 ) ;
#33 = ORIENTED_EDGE ( 'NONE', *, *, #138, .F. ) ;
#34 = AXIS2_PLACEMENT_3D ( 'NONE', #210, #72, #145 ) ;
#35 = APPROVAL_DATE_TIME ( #118, #182 ) ;
#36 = AXIS2_PLACEMENT_3D ( 'NONE', #1, #112, #86 ) ;
#37 = COORDINATED_UNIVERSAL_TIME_OFFSET ( 1, 0, .AHEAD. ) ;
#38 = SECURITY_CLASSIFICATION_LEVEL ( 'unclassified' ) ;
#39 = DIRECTION ( 'NONE',  ( 4.275831445896958607E-31, 1.000000000000000000, 1.224646799147353207E-16 ) ) ;
#40 = AXIS2_PLACEMENT_3D ( 'NONE', #56, #68, #140 ) ;
#41 = DESIGN_CONTEXT ( 'detailed design', #146, 'design' ) ;
#42 = CARTESIAN_POINT ( 'NONE',  ( 0.0000000000000000000, 0.0000000000000000000, 0.0000000000000000000 ) ) ;
#43 = AXIS2_PLACEMENT_3D ( 'NONE', #130, #203, #70 ) ;
#44 = MECHANICAL_CONTEXT ( 'NONE', #149, 'mechanical' ) ;
#45 = ORGANIZATION ( 'UNSPECIFIED', 'UNSPECIFIED', '' ) ;
#46 = PRODUCT_DEFINITION_FORMATION_WITH_SPECIFIED_SOURCE ( 'ANY', '', #183, .NOT_KNOWN. ) ;
#47 = DIRECTION ( 'NONE',  ( 3.491481338843133355E-15, -1.224646799147353207E-16, 1.000000000000000000 ) ) ;
#48 =( NAMED_UNIT ( * ) SI_UNIT ( $, .STERADIAN. ) SOLID_ANGLE_UNIT ( ) );
#49 = PERSON_AND_ORGANIZATION_ROLE ( 'creator' ) ;
#50 = AXIS2_PLACEMENT_3D ( 'NONE', #52, #212, #175 ) ;
#51 = PERSON_AND_ORGANIZATION ( #128, #45 ) ;
#52 = CARTESIAN_POINT ( 'NONE',  ( 1.326762908760390423E-13, -4.653657836759941941E-15, 38.00000000000000000 ) ) ;
#53 = APPROVAL_STATUS ( 'not_yet_approved' ) ;
#54 = DIRECTION ( 'NONE',  ( -3.491481338843133355E-15, 1.224646799147353207E-16, -1.000000000000000000 ) ) ;
#55 = PERSON_AND_ORGANIZATION_ROLE ( 'design_supplier' ) ;
#56 = CARTESIAN_POINT ( 'NONE',  ( 1.361677722148821693E-14, -4.787319494122037009E-16, 3.899999999999999023 ) ) ;
#57 = CC_DESIGN_PERSON_AND_ORGANIZATION_ASSIGNMENT ( #178, #55, ( #46 ) ) ;
#58 = DIRECTION ( 'NONE',  ( 3.491481338843133355E-15, -1.224646799147353207E-16, 1.000000000000000000 ) ) ;
#59 = VERTEX_POINT ( 'NONE', #82 ) ;
#60 = ORIENTED_EDGE ( 'NONE', *, *, #24, .F. ) ;
#61 = FACE_OUTER_BOUND ( 'NONE', #205, .T. ) ;
#62 = CARTESIAN_POINT ( 'NONE',  ( 1.326762908760390423E-13, 1.199999999999991962, 38.00000000000000000 ) ) ;
#63 = ADVANCED_FACE ( 'NONE', ( #26 ), #9, .F. ) ;
#64 = CYLINDRICAL_SURFACE ( 'NONE', #99, 1.499999999999994893 ) ;
#65 = PERSON_AND_ORGANIZATION ( #128, #45 ) ;
#66 = CIRCLE ( 'NONE', #25, 1.499999999999996669 ) ;
#67 = PERSON_AND_ORGANIZATION_ROLE ( 'design_owner' ) ;
#68 = DIRECTION ( 'NONE',  ( 3.491481338843133355E-15, -1.227517819005651059E-16, 1.000000000000000000 ) ) ;
#69 = LOCAL_TIME ( 13, 23, 51.00000000000000000, #37 ) ;
#70 = DIRECTION ( 'NONE',  ( 1.000000000000000000, 0.0000000000000000000, 0.0000000000000000000 ) ) ;
#71 = CALENDAR_DATE ( 2021, 1, 11 ) ;
#72 = DIRECTION ( 'NONE',  ( 3.491481338843133355E-15, -1.227517819005651059E-16, 1.000000000000000000 ) ) ;
#73 = AXIS2_PLACEMENT_3D ( 'NONE', #165, #215, #217 ) ;
#74 = LOCAL_TIME ( 13, 23, 51.00000000000000000, #4 ) ;
#75 = DIRECTION ( 'NONE',  ( -4.365601186994270652E-31, -1.000000000000000000, -1.227517819005651059E-16 ) ) ;
#76 = DIRECTION ( 'NONE',  ( 4.275831445896958607E-31, 1.000000000000000000, 1.224646799147353207E-16 ) ) ;
#77 = DIRECTION ( 'NONE',  ( 3.491481338843133355E-15, -1.227517819005651059E-16, 1.000000000000000000 ) ) ;
#78 = FACE_OUTER_BOUND ( 'NONE', #202, .T. ) ;
#79 = VERTEX_POINT ( 'NONE', #62 ) ;
#80 = CIRCLE ( 'NONE', #97, 0.6500000000000000222 ) ;
#81 = EDGE_LOOP ( 'NONE', ( #14 ) ) ;
#82 = CARTESIAN_POINT ( 'NONE',  ( -5.571612225602345059E-31, -0.6499999999999995781, -1.595773164707345341E-16 ) ) ;
#83 =( GEOMETRIC_REPRESENTATION_CONTEXT ( 3 ) GLOBAL_UNCERTAINTY_ASSIGNED_CONTEXT ( ( #122 ) ) GLOBAL_UNIT_ASSIGNED_CONTEXT ( ( #223, #135, #48 ) ) REPRESENTATION_CONTEXT ( 'NONE', 'WORKASPACE' ) );
#84 = EDGE_LOOP ( 'NONE', ( #102 ) ) ;
#85 = ADVANCED_FACE ( 'NONE', ( #201, #78 ), #64, .T. ) ;
#86 = DIRECTION ( 'NONE',  ( -4.275831445896958607E-31, -1.000000000000000000, -1.224646799147353207E-16 ) ) ;
#87 = ORIENTED_EDGE ( 'NONE', *, *, #144, .F. ) ;
#88 = CC_DESIGN_APPROVAL ( #170, ( #46 ) ) ;
#89 = PERSON_AND_ORGANIZATION ( #128, #45 ) ;
#90 = APPLICATION_PROTOCOL_DEFINITION ( 'international standard', 'config_control_design', 1994, #146 ) ;
#91 = PERSON_AND_ORGANIZATION_ROLE ( 'classification_officer' ) ;
#92 = CARTESIAN_POINT ( 'NONE',  ( 1.316288464743861212E-13, -4.616918432785521081E-15, 37.69999999999999574 ) ) ;
#93 = PERSON_AND_ORGANIZATION_ROLE ( 'creator' ) ;
#94 = COORDINATED_UNIVERSAL_TIME_OFFSET ( 1, 0, .AHEAD. ) ;
#95 = CC_DESIGN_PERSON_AND_ORGANIZATION_ASSIGNMENT ( #117, #93, ( #46 ) ) ;
#96 = AXIS2_PLACEMENT_3D ( 'NONE', #207, #121, #39 ) ;
#97 = AXIS2_PLACEMENT_3D ( 'NONE', #179, #77, #10 ) ;
#98 = APPLICATION_PROTOCOL_DEFINITION ( 'international standard', 'config_control_design', 1994, #149 ) ;
#99 = AXIS2_PLACEMENT_3D ( 'NONE', #42, #125, #76 ) ;
#100 = ORIENTED_EDGE ( 'NONE', *, *, #13, .F. ) ;
#101 = CC_DESIGN_APPROVAL ( #182, ( #221 ) ) ;
#102 = ORIENTED_EDGE ( 'NONE', *, *, #105, .F. ) ;
#103 = CARTESIAN_POINT ( 'NONE',  ( 1.361677722148821693E-14, -0.6500000000000003553, 3.899999999999999023 ) ) ;
#104 = FACE_OUTER_BOUND ( 'NONE', #84, .T. ) ;
#105 = EDGE_CURVE ( 'NONE', #29, #29, #80, .T. ) ;
#106 = DATE_TIME_ROLE ( 'classification_date' ) ;
#107 = FACE_OUTER_BOUND ( 'NONE', #171, .T. ) ;
#108 = LOCAL_TIME ( 13, 23, 51.00000000000000000, #19 ) ;
#109 = APPROVAL_ROLE ( '' ) ;
#110 = CIRCLE ( 'NONE', #40, 0.6500000000000000222 ) ;
#111 = FACE_OUTER_BOUND ( 'NONE', #187, .T. ) ;
#112 = DIRECTION ( 'NONE',  ( 3.491481338843133355E-15, -1.224646799147353207E-16, 1.000000000000000000 ) ) ;
#113 = CARTESIAN_POINT ( 'NONE',  ( 1.316288464743861212E-13, 1.499999999999992228, 37.69999999999999574 ) ) ;
#114 = CIRCLE ( 'NONE', #200, 1.499999999999994893 ) ;
#115 = DIRECTION ( 'NONE',  ( -3.491481338843133355E-15, 1.227517819005651059E-16, -1.000000000000000000 ) ) ;
#116 = ORIENTED_EDGE ( 'NONE', *, *, #144, .T. ) ;
#117 = PERSON_AND_ORGANIZATION ( #128, #45 ) ;
#118 = DATE_AND_TIME ( #71, #74 ) ;
#119 = AXIS2_PLACEMENT_3D ( 'NONE', #153, #15, #156 ) ;
#120 = LOCAL_TIME ( 13, 23, 51.00000000000000000, #94 ) ;
#121 = DIRECTION ( 'NONE',  ( -3.491481338843133355E-15, 1.224646799147353207E-16, -1.000000000000000000 ) ) ;
#122 = UNCERTAINTY_MEASURE_WITH_UNIT (LENGTH_MEASURE( 1.000000000000000082E-05 ), #223, 'distance_accuracy_value', 'NONE');
#123 = DIRECTION ( 'NONE',  ( 0.0000000000000000000, 1.000000000000000000, 0.0000000000000000000 ) ) ;
#124 = FACE_OUTER_BOUND ( 'NONE', #81, .T. ) ;
#125 = DIRECTION ( 'NONE',  ( -3.491481338843133355E-15, 1.224646799147353207E-16, -1.000000000000000000 ) ) ;
#126 = CC_DESIGN_PERSON_AND_ORGANIZATION_ASSIGNMENT ( #89, #67, ( #183 ) ) ;
#127 = LOCAL_TIME ( 13, 23, 51.00000000000000000, #137 ) ;
#128 = PERSON ( 'UNSPECIFIED', 'UNSPECIFIED', 'UNSPECIFIED', ('UNSPECIFIED'), ('UNSPECIFIED'), ('UNSPECIFIED') ) ;
#129 = EDGE_LOOP ( 'NONE', ( #87 ) ) ;
#130 = CARTESIAN_POINT ( 'NONE',  ( 0.0000000000000000000, 0.0000000000000000000, 0.0000000000000000000 ) ) ;
#131 = CIRCLE ( 'NONE', #34, 0.6499999999999995781 ) ;
#132 = CARTESIAN_POINT ( 'NONE',  ( 1.361677722148822009E-14, 1.124819836996387048E-32, 3.899999999999999911 ) ) ;
#133 = PLANE ( 'NONE',  #36 ) ;
#134 = ORIENTED_EDGE ( 'NONE', *, *, #105, .T. ) ;
#135 =( NAMED_UNIT ( * ) PLANE_ANGLE_UNIT ( ) SI_UNIT ( $, .RADIAN. ) );
#136 = CC_DESIGN_DATE_AND_TIME_ASSIGNMENT ( #23, #106, ( #198 ) ) ;
#137 = COORDINATED_UNIVERSAL_TIME_OFFSET ( 1, 0, .AHEAD. ) ;
#138 = EDGE_CURVE ( 'NONE', #168, #168, #114, .T. ) ;
#139 = AXIS2_PLACEMENT_3D ( 'NONE', #176, #27, #75 ) ;
#140 = DIRECTION ( 'NONE',  ( 0.0000000000000000000, -1.000000000000000000, 0.0000000000000000000 ) ) ;
#141 = CC_DESIGN_DATE_AND_TIME_ASSIGNMENT ( #8, #195, ( #221 ) ) ;
#142 = PERSON_AND_ORGANIZATION ( #128, #45 ) ;
#143 = MANIFOLD_SOLID_BREP ( 'Corps-Déplacer/Copier1[2]', #161 ) ;
#144 = EDGE_CURVE ( 'NONE', #59, #59, #131, .T. ) ;
#145 = DIRECTION ( 'NONE',  ( -4.285855558155652404E-31, -1.000000000000000000, -1.227517819005651059E-16 ) ) ;
#146 = APPLICATION_CONTEXT ( 'configuration controlled 3d designs of mechanical parts and assemblies' ) ;
#147 = APPROVAL_PERSON_ORGANIZATION ( #18, #208, #213 ) ;
#148 = DIRECTION ( 'NONE',  ( -4.275831445896958607E-31, -1.000000000000000000, -1.224646799147353207E-16 ) ) ;
#149 = APPLICATION_CONTEXT ( 'configuration controlled 3d designs of mechanical parts and assemblies' ) ;
#150 = CIRCLE ( 'NONE', #50, 1.199999999999996403 ) ;
#151 = AXIS2_PLACEMENT_3D ( 'NONE', #132, #47, #166 ) ;
#152 = ORIENTED_EDGE ( 'NONE', *, *, #164, .F. ) ;
#153 = CARTESIAN_POINT ( 'NONE',  ( -6.413731847436034514E-31, 0.0000000000000000000, -1.836965810494968570E-16 ) ) ;
#154 = EDGE_LOOP ( 'NONE', ( #191 ) ) ;
#155 = CYLINDRICAL_SURFACE ( 'NONE', #119, 0.6499999999999998002 ) ;
#156 = DIRECTION ( 'NONE',  ( -4.285855558155653280E-31, -1.000000000000000000, -1.227517819005651305E-16 ) ) ;
#157 = EDGE_LOOP ( 'NONE', ( #134 ) ) ;
#158 = PERSON_AND_ORGANIZATION ( #128, #45 ) ;
#159 = DATE_AND_TIME ( #160, #120 ) ;
#160 = CALENDAR_DATE ( 2021, 1, 11 ) ;
#161 = CLOSED_SHELL ( 'NONE', ( #220, #214, #63 ) ) ;
#162 = ADVANCED_BREP_SHAPE_REPRESENTATION ( '950044', ( #222, #143, #43 ), #83 ) ;
#163 = CC_DESIGN_PERSON_AND_ORGANIZATION_ASSIGNMENT ( #65, #91, ( #198 ) ) ;
#164 = EDGE_CURVE ( 'NONE', #32, #32, #110, .T. ) ;
#165 = CARTESIAN_POINT ( 'NONE',  ( 1.326762908760390423E-13, -4.653657836759941941E-15, 38.00000000000000000 ) ) ;
#166 = DIRECTION ( 'NONE',  ( -4.275831445896958607E-31, -1.000000000000000000, -1.224646799147353207E-16 ) ) ;
#167 = APPROVAL_PERSON_ORGANIZATION ( #158, #182, #109 ) ;
#168 = VERTEX_POINT ( 'NONE', #184 ) ;
#169 = EDGE_LOOP ( 'NONE', ( #204 ) ) ;
#170 = APPROVAL ( #21, 'UNSPECIFIED' ) ;
#171 = EDGE_LOOP ( 'NONE', ( #60 ) ) ;
#172 = TOROIDAL_SURFACE ( 'NONE', #139, 8.650000000000000355, 8.000000000000000000 ) ;
#173 = APPROVAL_DATE_TIME ( #209, #170 ) ;
#174 = CALENDAR_DATE ( 2021, 1, 11 ) ;
#175 = DIRECTION ( 'NONE',  ( 0.0000000000000000000, 1.000000000000000000, 0.0000000000000000000 ) ) ;
#176 = CARTESIAN_POINT ( 'NONE',  ( 1.361677722148821693E-14, 0.0000000000000000000, 3.899999999999999023 ) ) ;
#177 = ADVANCED_FACE ( 'NONE', ( #196, #124 ), #172, .F. ) ;
#178 = PERSON_AND_ORGANIZATION ( #128, #45 ) ;
#179 = CARTESIAN_POINT ( 'NONE',  ( 1.361677722148821693E-14, -4.787319494122037009E-16, 3.899999999999999023 ) ) ;
#180 = FACE_BOUND ( 'NONE', #206, .T. ) ;
#181 = CARTESIAN_POINT ( 'NONE',  ( 2.614603961301707350E-14, -4.404976384520788793E-16, 7.488523373199610589 ) ) ;
#182 = APPROVAL ( #53, 'UNSPECIFIED' ) ;
#183 = PRODUCT ( '950044', '950044', '', ( #44 ) ) ;
#184 = CARTESIAN_POINT ( 'NONE',  ( 2.614603961301707350E-14, 1.499999999999994449, 7.488523373199610589 ) ) ;
#185 = FACE_OUTER_BOUND ( 'NONE', #190, .T. ) ;
#186 = CC_DESIGN_PERSON_AND_ORGANIZATION_ASSIGNMENT ( #51, #49, ( #221 ) ) ;
#187 = EDGE_LOOP ( 'NONE', ( #100 ) ) ;
#188 = ADVANCED_FACE ( 'NONE', ( #107, #180 ), #219, .T. ) ;
#189 = PLANE ( 'NONE',  #151 ) ;
#190 = EDGE_LOOP ( 'NONE', ( #152 ) ) ;
#191 = ORIENTED_EDGE ( 'NONE', *, *, #164, .T. ) ;
#192 = CLOSED_SHELL ( 'NONE', ( #85, #188, #11, #177, #218 ) ) ;
#193 = APPROVAL_STATUS ( 'not_yet_approved' ) ;
#194 = APPROVAL_ROLE ( '' ) ;
#195 = DATE_TIME_ROLE ( 'creation_date' ) ;
#196 = FACE_OUTER_BOUND ( 'NONE', #157, .T. ) ;
#197 = CALENDAR_DATE ( 2021, 1, 11 ) ;
#198 = SECURITY_CLASSIFICATION ( '', '', #38 ) ;
#199 = PRODUCT_RELATED_PRODUCT_CATEGORY ( 'detail', '', ( #183 ) ) ;
#200 = AXIS2_PLACEMENT_3D ( 'NONE', #181, #115, #3 ) ;
#201 = FACE_OUTER_BOUND ( 'NONE', #169, .T. ) ;
#202 = EDGE_LOOP ( 'NONE', ( #33 ) ) ;
#203 = DIRECTION ( 'NONE',  ( 0.0000000000000000000, 0.0000000000000000000, 1.000000000000000000 ) ) ;
#204 = ORIENTED_EDGE ( 'NONE', *, *, #24, .T. ) ;
#205 = EDGE_LOOP ( 'NONE', ( #116 ) ) ;
#206 = EDGE_LOOP ( 'NONE', ( #2 ) ) ;
#207 = CARTESIAN_POINT ( 'NONE',  ( 1.326762908760390423E-13, 8.998558695971051224E-33, 38.00000000000000000 ) ) ;
#208 = APPROVAL ( #193, 'UNSPECIFIED' ) ;
#209 = DATE_AND_TIME ( #22, #69 ) ;
#210 = CARTESIAN_POINT ( 'NONE',  ( -2.785806112801172530E-31, -1.275488267902078860E-32, -7.978865823536726704E-17 ) ) ;
#211 = SHAPE_DEFINITION_REPRESENTATION ( #12, #162 ) ;
#212 = DIRECTION ( 'NONE',  ( -3.491481338843133355E-15, 1.224646799147353207E-16, -1.000000000000000000 ) ) ;
#213 = APPROVAL_ROLE ( '' ) ;
#214 = ADVANCED_FACE ( 'NONE', ( #61, #185 ), #155, .T. ) ;
#215 = DIRECTION ( 'NONE',  ( -3.491481338843133355E-15, 1.224646799147353207E-16, -1.000000000000000000 ) ) ;
#216 = CARTESIAN_POINT ( 'NONE',  ( -8.551680453529350800E-31, 2.999525725151307090E-32, -2.449298628175645296E-16 ) ) ;
#217 = DIRECTION ( 'NONE',  ( 0.0000000000000000000, 1.000000000000000000, 0.0000000000000000000 ) ) ;
#218 = ADVANCED_FACE ( 'NONE', ( #104 ), #133, .F. ) ;
#219 = CONICAL_SURFACE ( 'NONE', #73, 1.199999999999996403, 0.7853981633974461696 ) ;
#220 = ADVANCED_FACE ( 'NONE', ( #16 ), #189, .T. ) ;
#221 = PRODUCT_DEFINITION ( 'UNKNOWN', '', #46, #41 ) ;
#222 = MANIFOLD_SOLID_BREP ( 'Corps-Déplacer/Copier1[1]', #192 ) ;
#223 =( LENGTH_UNIT ( ) NAMED_UNIT ( * ) SI_UNIT ( .MILLI., .METRE. ) );
ENDSEC;
END-ISO-10303-21;
