ISO-10303-21;
HEADER;
FILE_DESCRIPTION (( 'STEP AP203' ),
    '1' );
FILE_NAME ('950039.step',
    '2021-11-30T06:45:04',
    ( '' ),
    ( '' ),
    'SwSTEP 2.0',
    'SolidWorks 2019',
    '' );
FILE_SCHEMA (( 'CONFIG_CONTROL_DESIGN' ));
ENDSEC;

DATA;
#1 = DIRECTION ( 'NONE',  ( 0.0000000000000000000, 1.000000000000000000, 0.0000000000000000000 ) ) ;
#2 = DIRECTION ( 'NONE',  ( 0.0000000000000000000, -1.000000000000000000, 0.0000000000000000000 ) ) ;
#3 = VERTEX_POINT ( 'NONE', #231 ) ;
#4 = CARTESIAN_POINT ( 'NONE',  ( 8.728703347107829444E-16, -3.061616997868381785E-17, 0.2499999999999998890 ) ) ;
#5 = CARTESIAN_POINT ( 'NONE',  ( 7.915307369081196141E-14, -2.776316094252581933E-15, 22.67034132768371535 ) ) ;
#6 = CARTESIAN_POINT ( 'NONE',  ( 3.491481338843133355E-14, 1.213499999999993584, 10.00000000000000000 ) ) ;
#7 = CARTESIAN_POINT ( 'NONE',  ( 3.584309283006850656E-14, -1.257206458976207460E-15, 10.26586979896182150 ) ) ;
#8 = APPROVAL_PERSON_ORGANIZATION ( #103, #114, #100 ) ;
#9 = APPLICATION_PROTOCOL_DEFINITION ( 'international standard', 'config_control_design', 1994, #56 ) ;
#10 = VERTEX_POINT ( 'NONE', #105 ) ;
#11 = ORIENTED_EDGE ( 'NONE', *, *, #41, .F. ) ;
#12 = ORIENTED_EDGE ( 'NONE', *, *, #172, .F. ) ;
#13 = APPLICATION_CONTEXT ( 'configuration controlled 3d designs of mechanical parts and assemblies' ) ;
#14 = AXIS2_PLACEMENT_3D ( 'NONE', #167, #301, #298 ) ;
#15 = AXIS2_PLACEMENT_3D ( 'NONE', #197, #198, #254 ) ;
#16 = ADVANCED_FACE ( 'NONE', ( #175 ), #242, .T. ) ;
#17 = ORIENTED_EDGE ( 'NONE', *, *, #227, .F. ) ;
#18 = PRODUCT_RELATED_PRODUCT_CATEGORY ( 'detail', '', ( #221 ) ) ;
#19 = VERTEX_POINT ( 'NONE', #6 ) ;
#20 = DIRECTION ( 'NONE',  ( 0.0000000000000000000, 1.000000000000000000, 0.0000000000000000000 ) ) ;
#21 = PLANE ( 'NONE',  #255 ) ;
#22 = AXIS2_PLACEMENT_3D ( 'NONE', #276, #117, #43 ) ;
#23 = FACE_OUTER_BOUND ( 'NONE', #283, .T. ) ;
#24 = CC_DESIGN_APPROVAL ( #133, ( #240 ) ) ;
#25 = CC_DESIGN_DATE_AND_TIME_ASSIGNMENT ( #229, #59, ( #240 ) ) ;
#26 = CARTESIAN_POINT ( 'NONE',  ( 3.491481338843133355E-14, -1.224646799147353256E-15, 10.00000000000000000 ) ) ;
#27 = PLANE ( 'NONE',  #230 ) ;
#28 = SECURITY_CLASSIFICATION_LEVEL ( 'unclassified' ) ;
#29 = EDGE_CURVE ( 'NONE', #19, #19, #270, .T. ) ;
#30 = PERSON_AND_ORGANIZATION_ROLE ( 'design_owner' ) ;
#31 = AXIS2_PLACEMENT_3D ( 'NONE', #88, #44, #142 ) ;
#32 = LOCAL_TIME ( 7, 45, 4.000000000000000000, #34 ) ;
#33 = COORDINATED_UNIVERSAL_TIME_OFFSET ( 1, 0, .AHEAD. ) ;
#34 = COORDINATED_UNIVERSAL_TIME_OFFSET ( 1, 0, .AHEAD. ) ;
#35 = EDGE_LOOP ( 'NONE', ( #264 ) ) ;
#36 = CALENDAR_DATE ( 2021, 30, 11 ) ;
#37 = EDGE_LOOP ( 'NONE', ( #246 ) ) ;
#38 = AXIS2_PLACEMENT_3D ( 'NONE', #256, #217, #177 ) ;
#39 = DIRECTION ( 'NONE',  ( 0.0000000000000000000, 1.000000000000000000, 0.0000000000000000000 ) ) ;
#40 = FACE_OUTER_BOUND ( 'NONE', #96, .T. ) ;
#41 = EDGE_CURVE ( 'NONE', #3, #3, #115, .T. ) ;
#42 = DIRECTION ( 'NONE',  ( -3.491481338843133355E-15, 1.224646799147353207E-16, -1.000000000000000000 ) ) ;
#43 = DIRECTION ( 'NONE',  ( 4.275831445896958607E-31, 1.000000000000000000, 1.224646799147353207E-16 ) ) ;
#44 = DIRECTION ( 'NONE',  ( -3.491481338843133355E-15, 1.224646799147353207E-16, -1.000000000000000000 ) ) ;
#45 = CARTESIAN_POINT ( 'NONE',  ( 0.0000000000000000000, 0.0000000000000000000, 0.0000000000000000000 ) ) ;
#46 = CIRCLE ( 'NONE', #155, 1.059999999999998943 ) ;
#47 = FACE_OUTER_BOUND ( 'NONE', #300, .T. ) ;
#48 = ORIENTED_EDGE ( 'NONE', *, *, #200, .F. ) ;
#49 = DIRECTION ( 'NONE',  ( -3.491481338843133355E-15, 1.224646799147353207E-16, -1.000000000000000000 ) ) ;
#50 = PRODUCT_DEFINITION ( 'UNKNOWN', '', #116, #275 ) ;
#51 = PLANE ( 'NONE',  #188 ) ;
#52 = PERSON_AND_ORGANIZATION_ROLE ( 'creator' ) ;
#53 = PERSON_AND_ORGANIZATION_ROLE ( 'design_supplier' ) ;
#54 =( LENGTH_UNIT ( ) NAMED_UNIT ( * ) SI_UNIT ( .MILLI., .METRE. ) );
#55 = COORDINATED_UNIVERSAL_TIME_OFFSET ( 1, 0, .AHEAD. ) ;
#56 = APPLICATION_CONTEXT ( 'configuration controlled 3d designs of mechanical parts and assemblies' ) ;
#57 = EDGE_LOOP ( 'NONE', ( #252 ) ) ;
#58 = CIRCLE ( 'NONE', #31, 1.499999999999996669 ) ;
#59 = DATE_TIME_ROLE ( 'classification_date' ) ;
#60 = DIRECTION ( 'NONE',  ( -3.491481338843133355E-15, 1.224646799147353207E-16, -1.000000000000000000 ) ) ;
#61 = CARTESIAN_POINT ( 'NONE',  ( 8.728703347107829444E-16, -3.061616997868381785E-17, 0.2499999999999998890 ) ) ;
#62 = CIRCLE ( 'NONE', #90, 1.200000000000001732 ) ;
#63 = FACE_OUTER_BOUND ( 'NONE', #119, .T. ) ;
#64 = ORIENTED_EDGE ( 'NONE', *, *, #227, .T. ) ;
#65 = DIRECTION ( 'NONE',  ( -3.491481338843133355E-15, 1.224646799147353207E-16, -1.000000000000000000 ) ) ;
#66 = AXIS2_PLACEMENT_3D ( 'NONE', #250, #42, #140 ) ;
#67 = LOCAL_TIME ( 7, 45, 4.000000000000000000, #33 ) ;
#68 = FACE_OUTER_BOUND ( 'NONE', #205, .T. ) ;
#69 = CARTESIAN_POINT ( 'NONE',  ( 0.0000000000000000000, 1.069162432702589260, 0.0000000000000000000 ) ) ;
#70 = EDGE_CURVE ( 'NONE', #93, #93, #168, .T. ) ;
#71 = DIRECTION ( 'NONE',  ( 0.0000000000000000000, 1.000000000000000000, 0.0000000000000000000 ) ) ;
#72 = DIRECTION ( 'NONE',  ( 4.275831445896958607E-31, 1.000000000000000000, 1.224646799147353207E-16 ) ) ;
#73 = CIRCLE ( 'NONE', #106, 1.060000000000000053 ) ;
#74 = APPROVAL_DATE_TIME ( #286, #114 ) ;
#75 = CALENDAR_DATE ( 2021, 30, 11 ) ;
#76 = EDGE_CURVE ( 'NONE', #97, #97, #163, .T. ) ;
#77 = ORIENTED_EDGE ( 'NONE', *, *, #81, .F. ) ;
#78 = CIRCLE ( 'NONE', #38, 1.500000000000001554 ) ;
#79 = DIRECTION ( 'NONE',  ( 1.000000000000000000, 0.0000000000000000000, 0.0000000000000000000 ) ) ;
#80 = ORIENTED_EDGE ( 'NONE', *, *, #70, .F. ) ;
#81 = EDGE_CURVE ( 'NONE', #152, #152, #58, .T. ) ;
#82 = ORIENTED_EDGE ( 'NONE', *, *, #76, .T. ) ;
#83 = ORIENTED_EDGE ( 'NONE', *, *, #200, .T. ) ;
#84 = APPROVAL_STATUS ( 'not_yet_approved' ) ;
#85 = ADVANCED_FACE ( 'NONE', ( #144 ), #27, .F. ) ;
#86 = AXIS2_PLACEMENT_3D ( 'NONE', #171, #49, #281 ) ;
#87 = COORDINATED_UNIVERSAL_TIME_OFFSET ( 1, 0, .AHEAD. ) ;
#88 = CARTESIAN_POINT ( 'NONE',  ( 7.915307369081196141E-14, -2.776316094252581933E-15, 22.67034132768371535 ) ) ;
#89 = AXIS2_PLACEMENT_3D ( 'NONE', #224, #164, #187 ) ;
#90 = AXIS2_PLACEMENT_3D ( 'NONE', #149, #277, #20 ) ;
#91 = ORIENTED_EDGE ( 'NONE', *, *, #70, .T. ) ;
#92 = PRODUCT_DEFINITION_SHAPE ( 'NONE', 'NONE',  #50 ) ;
#93 = VERTEX_POINT ( 'NONE', #194 ) ;
#94 = ORIENTED_EDGE ( 'NONE', *, *, #244, .F. ) ;
#95 = FACE_OUTER_BOUND ( 'NONE', #185, .T. ) ;
#96 = EDGE_LOOP ( 'NONE', ( #64 ) ) ;
#97 = VERTEX_POINT ( 'NONE', #69 ) ;
#98 = FACE_OUTER_BOUND ( 'NONE', #169, .T. ) ;
#99 = MANIFOLD_SOLID_BREP ( 'Corps-Déplacer/Copier1[1]', #293 ) ;
#100 = APPROVAL_ROLE ( '' ) ;
#101 = DATE_AND_TIME ( #75, #32 ) ;
#102 = APPROVAL_STATUS ( 'not_yet_approved' ) ;
#103 = PERSON_AND_ORGANIZATION ( #109, #260 ) ;
#104 = ADVANCED_FACE ( 'NONE', ( #178, #128 ), #139, .T. ) ;
#105 = CARTESIAN_POINT ( 'NONE',  ( 3.491481338843133355E-14, 1.213499999999993584, 10.00000000000000000 ) ) ;
#106 = AXIS2_PLACEMENT_3D ( 'NONE', #233, #284, #71 ) ;
#107 = EDGE_LOOP ( 'NONE', ( #83 ) ) ;
#108 = ORIENTED_EDGE ( 'NONE', *, *, #41, .T. ) ;
#109 = PERSON ( 'UNSPECIFIED', 'UNSPECIFIED', 'UNSPECIFIED', ('UNSPECIFIED'), ('UNSPECIFIED'), ('UNSPECIFIED') ) ;
#110 = UNCERTAINTY_MEASURE_WITH_UNIT (LENGTH_MEASURE( 1.000000000000000082E-05 ), #54, 'distance_accuracy_value', 'NONE');
#111 = PERSON_AND_ORGANIZATION ( #109, #260 ) ;
#112 = AXIS2_PLACEMENT_3D ( 'NONE', #282, #173, #278 ) ;
#113 = CYLINDRICAL_SURFACE ( 'NONE', #66, 1.499999999999999112 ) ;
#114 = APPROVAL ( #134, 'UNSPECIFIED' ) ;
#115 = CIRCLE ( 'NONE', #287, 1.213499999999993584 ) ;
#116 = PRODUCT_DEFINITION_FORMATION_WITH_SPECIFIED_SOURCE ( 'ANY', '', #221, .NOT_KNOWN. ) ;
#117 = DIRECTION ( 'NONE',  ( -3.491481338843133355E-15, 1.224646799147353207E-16, -1.000000000000000000 ) ) ;
#118 = DIRECTION ( 'NONE',  ( 4.275831445896958607E-31, 1.000000000000000000, 1.224646799147353207E-16 ) ) ;
#119 = EDGE_LOOP ( 'NONE', ( #12 ) ) ;
#120 = ADVANCED_FACE ( 'NONE', ( #192, #40 ), #113, .T. ) ;
#121 = FACE_OUTER_BOUND ( 'NONE', #135, .T. ) ;
#122 = DIRECTION ( 'NONE',  ( -3.491481338843133355E-15, 1.224646799147353207E-16, -1.000000000000000000 ) ) ;
#123 = CARTESIAN_POINT ( 'NONE',  ( 1.745740669421566678E-13, 8.998558695971067645E-33, 50.00000000000000000 ) ) ;
#124 = CLOSED_SHELL ( 'NONE', ( #265, #104, #279, #16 ) ) ;
#125 = LOCAL_TIME ( 7, 45, 4.000000000000000000, #87 ) ;
#126 = CARTESIAN_POINT ( 'NONE',  ( 0.0000000000000000000, 0.0000000000000000000, 0.0000000000000000000 ) ) ;
#127 = FACE_OUTER_BOUND ( 'NONE', #268, .T. ) ;
#128 = FACE_OUTER_BOUND ( 'NONE', #269, .T. ) ;
#129 = CARTESIAN_POINT ( 'NONE',  ( 1.735266225405037467E-13, 1.499999999999995559, 49.70000000000000284 ) ) ;
#130 = LOCAL_TIME ( 7, 45, 4.000000000000000000, #55 ) ;
#131 = PERSON_AND_ORGANIZATION ( #109, #260 ) ;
#132 = PERSON_AND_ORGANIZATION ( #109, #260 ) ;
#133 = APPROVAL ( #84, 'UNSPECIFIED' ) ;
#134 = APPROVAL_STATUS ( 'not_yet_approved' ) ;
#135 = EDGE_LOOP ( 'NONE', ( #91 ) ) ;
#136 = VERTEX_POINT ( 'NONE', #158 ) ;
#137 =( GEOMETRIC_REPRESENTATION_CONTEXT ( 3 ) GLOBAL_UNCERTAINTY_ASSIGNED_CONTEXT ( ( #110 ) ) GLOBAL_UNIT_ASSIGNED_CONTEXT ( ( #54, #220, #266 ) ) REPRESENTATION_CONTEXT ( 'NONE', 'WORKASPACE' ) );
#138 = CALENDAR_DATE ( 2021, 30, 11 ) ;
#139 = CONICAL_SURFACE ( 'NONE', #146, 1.213499999999993584, 0.5235987755982927094 ) ;
#140 = DIRECTION ( 'NONE',  ( 4.275831445896958607E-31, 1.000000000000000000, 1.224646799147353454E-16 ) ) ;
#141 = ADVANCED_FACE ( 'NONE', ( #161, #225 ), #280, .T. ) ;
#142 = DIRECTION ( 'NONE',  ( 0.0000000000000000000, 1.000000000000000000, 0.0000000000000000000 ) ) ;
#143 = EDGE_LOOP ( 'NONE', ( #272 ) ) ;
#144 = FACE_OUTER_BOUND ( 'NONE', #243, .T. ) ;
#145 = CYLINDRICAL_SURFACE ( 'NONE', #262, 1.213499999999994250 ) ;
#146 = AXIS2_PLACEMENT_3D ( 'NONE', #4, #249, #210 ) ;
#147 = ADVANCED_FACE ( 'NONE', ( #98, #121 ), #183, .F. ) ;
#148 = CIRCLE ( 'NONE', #209, 1.213499999999994916 ) ;
#149 = CARTESIAN_POINT ( 'NONE',  ( 1.745740669421566678E-13, -6.123233995736766085E-15, 50.00000000000000000 ) ) ;
#150 = EDGE_LOOP ( 'NONE', ( #80 ) ) ;
#151 = DIRECTION ( 'NONE',  ( -3.491481338843133355E-15, 1.224646799147353207E-16, -1.000000000000000000 ) ) ;
#152 = VERTEX_POINT ( 'NONE', #176 ) ;
#153 = DIRECTION ( 'NONE',  ( -4.275831445896958607E-31, -1.000000000000000000, -1.224646799147353207E-16 ) ) ;
#154 = VERTEX_POINT ( 'NONE', #203 ) ;
#155 = AXIS2_PLACEMENT_3D ( 'NONE', #7, #151, #258 ) ;
#156 = DIRECTION ( 'NONE',  ( 0.0000000000000000000, 0.0000000000000000000, 1.000000000000000000 ) ) ;
#157 = DIRECTION ( 'NONE',  ( 3.491481338843133355E-15, -1.224646799147353207E-16, 1.000000000000000000 ) ) ;
#158 = CARTESIAN_POINT ( 'NONE',  ( 1.745740669421566678E-13, 1.199999999999995515, 50.00000000000000000 ) ) ;
#159 = ORIENTED_EDGE ( 'NONE', *, *, #208, .T. ) ;
#160 = DATE_AND_TIME ( #182, #130 ) ;
#161 = FACE_BOUND ( 'NONE', #150, .T. ) ;
#162 = ORIENTED_EDGE ( 'NONE', *, *, #208, .F. ) ;
#163 = CIRCLE ( 'NONE', #22, 1.069162432702589260 ) ;
#164 = DIRECTION ( 'NONE',  ( 3.491481338843133355E-15, -1.224646799147353207E-16, 1.000000000000000000 ) ) ;
#165 = APPROVAL_PERSON_ORGANIZATION ( #111, #133, #166 ) ;
#166 = APPROVAL_ROLE ( '' ) ;
#167 = CARTESIAN_POINT ( 'NONE',  ( 7.104220552055901835E-14, -2.491825135286219831E-15, 20.34729635533384595 ) ) ;
#168 = CIRCLE ( 'NONE', #14, 1.090384493975579572 ) ;
#169 = EDGE_LOOP ( 'NONE', ( #162 ) ) ;
#170 = CC_DESIGN_PERSON_AND_ORGANIZATION_ASSIGNMENT ( #202, #261, ( #50 ) ) ;
#171 = CARTESIAN_POINT ( 'NONE',  ( 3.584309283006850656E-14, -1.257206458976207460E-15, 10.26586979896182150 ) ) ;
#172 = EDGE_CURVE ( 'NONE', #218, #218, #46, .T. ) ;
#173 = DIRECTION ( 'NONE',  ( -3.491481338843133355E-15, 1.224646799147353207E-16, -1.000000000000000000 ) ) ;
#174 = DIRECTION ( 'NONE',  ( -4.275831445896958607E-31, -1.000000000000000000, -1.224646799147353207E-16 ) ) ;
#175 = FACE_OUTER_BOUND ( 'NONE', #204, .T. ) ;
#176 = CARTESIAN_POINT ( 'NONE',  ( 7.915307369081196141E-14, 1.499999999999994005, 22.67034132768371535 ) ) ;
#177 = DIRECTION ( 'NONE',  ( 0.0000000000000000000, 1.000000000000000000, 0.0000000000000000000 ) ) ;
#178 = FACE_BOUND ( 'NONE', #57, .T. ) ;
#179 = ADVANCED_FACE ( 'NONE', ( #234, #259 ), #184, .T. ) ;
#180 = APPROVAL_PERSON_ORGANIZATION ( #131, #215, #295 ) ;
#181 = CARTESIAN_POINT ( 'NONE',  ( 0.0000000000000000000, 0.0000000000000000000, 0.0000000000000000000 ) ) ;
#182 = CALENDAR_DATE ( 2021, 30, 11 ) ;
#183 = TOROIDAL_SURFACE ( 'NONE', #112, 3.060000000000000053, 2.000000000000000888 ) ;
#184 = CONICAL_SURFACE ( 'NONE', #15, 1.200000000000001732, 0.7853981633974453924 ) ;
#185 = EDGE_LOOP ( 'NONE', ( #292 ) ) ;
#186 = EDGE_LOOP ( 'NONE', ( #17 ) ) ;
#187 = DIRECTION ( 'NONE',  ( -4.275831445896958607E-31, -1.000000000000000000, -1.224646799147353207E-16 ) ) ;
#188 = AXIS2_PLACEMENT_3D ( 'NONE', #212, #196, #153 ) ;
#189 = COORDINATED_UNIVERSAL_TIME_OFFSET ( 1, 0, .AHEAD. ) ;
#190 = DIRECTION ( 'NONE',  ( 4.761260678336825419E-31, 1.000000000000000000, 1.340175738548220123E-16 ) ) ;
#191 = CC_DESIGN_PERSON_AND_ORGANIZATION_ASSIGNMENT ( #222, #291, ( #240 ) ) ;
#192 = FACE_OUTER_BOUND ( 'NONE', #226, .T. ) ;
#193 = FACE_BOUND ( 'NONE', #143, .T. ) ;
#194 = CARTESIAN_POINT ( 'NONE',  ( 7.104220552055901835E-14, 1.090384493975577351, 20.34729635533384595 ) ) ;
#195 = ORIENTED_EDGE ( 'NONE', *, *, #29, .F. ) ;
#196 = DIRECTION ( 'NONE',  ( 3.491481338843133355E-15, -1.224646799147353207E-16, 1.000000000000000000 ) ) ;
#197 = CARTESIAN_POINT ( 'NONE',  ( 1.745740669421566678E-13, -6.123233995736766085E-15, 50.00000000000000000 ) ) ;
#198 = DIRECTION ( 'NONE',  ( -3.491481338843133355E-15, 1.224646799147353207E-16, -1.000000000000000000 ) ) ;
#199 = CC_DESIGN_PERSON_AND_ORGANIZATION_ASSIGNMENT ( #239, #53, ( #116 ) ) ;
#200 = EDGE_CURVE ( 'NONE', #136, #136, #62, .T. ) ;
#201 = PERSON_AND_ORGANIZATION ( #109, #260 ) ;
#202 = PERSON_AND_ORGANIZATION ( #109, #260 ) ;
#203 = CARTESIAN_POINT ( 'NONE',  ( 6.982962677686266711E-14, 1.059999999999997611, 20.00000000000000000 ) ) ;
#204 = EDGE_LOOP ( 'NONE', ( #195 ) ) ;
#205 = EDGE_LOOP ( 'NONE', ( #82 ) ) ;
#206 = MANIFOLD_SOLID_BREP ( 'Corps-Déplacer/Copier1[2]', #124 ) ;
#207 = DATE_AND_TIME ( #296, #294 ) ;
#208 = EDGE_CURVE ( 'NONE', #154, #154, #73, .T. ) ;
#209 = AXIS2_PLACEMENT_3D ( 'NONE', #26, #65, #1 ) ;
#210 = DIRECTION ( 'NONE',  ( -4.761260678336825419E-31, -1.000000000000000000, -1.340175738548220123E-16 ) ) ;
#211 = CYLINDRICAL_SURFACE ( 'NONE', #303, 1.059999999999999387 ) ;
#212 = CARTESIAN_POINT ( 'NONE',  ( 3.491481338843133355E-14, 9.099792481300763752E-33, 10.00000000000000000 ) ) ;
#213 = CARTESIAN_POINT ( 'NONE',  ( -2.285779175260711145E-31, 8.017434088501290993E-33, -6.546731754889116739E-17 ) ) ;
#214 = CC_DESIGN_APPROVAL ( #215, ( #50 ) ) ;
#215 = APPROVAL ( #102, 'UNSPECIFIED' ) ;
#216 = DIRECTION ( 'NONE',  ( 3.491481338843133355E-15, -1.224646799147353207E-16, 1.000000000000000000 ) ) ;
#217 = DIRECTION ( 'NONE',  ( -3.491481338843133355E-15, 1.224646799147353207E-16, -1.000000000000000000 ) ) ;
#218 = VERTEX_POINT ( 'NONE', #289 ) ;
#219 = CONICAL_SURFACE ( 'NONE', #86, 1.059999999999998943, 0.5235987755982913772 ) ;
#220 =( NAMED_UNIT ( * ) PLANE_ANGLE_UNIT ( ) SI_UNIT ( $, .RADIAN. ) );
#221 = PRODUCT ( '950039', '950039', '', ( #241 ) ) ;
#222 = PERSON_AND_ORGANIZATION ( #109, #260 ) ;
#223 = APPROVAL_DATE_TIME ( #101, #215 ) ;
#224 = CARTESIAN_POINT ( 'NONE',  ( 3.491481338843133355E-14, 9.099792481300763752E-33, 10.00000000000000000 ) ) ;
#225 = FACE_OUTER_BOUND ( 'NONE', #37, .T. ) ;
#226 = EDGE_LOOP ( 'NONE', ( #77 ) ) ;
#227 = EDGE_CURVE ( 'NONE', #228, #228, #78, .T. ) ;
#228 = VERTEX_POINT ( 'NONE', #129 ) ;
#229 = DATE_AND_TIME ( #138, #125 ) ;
#230 = AXIS2_PLACEMENT_3D ( 'NONE', #123, #285, #72 ) ;
#231 = CARTESIAN_POINT ( 'NONE',  ( 8.728703347107835360E-16, 1.213499999999993584, 0.2500000000000000555 ) ) ;
#232 = ADVANCED_FACE ( 'NONE', ( #95 ), #51, .F. ) ;
#233 = CARTESIAN_POINT ( 'NONE',  ( 6.982962677686266711E-14, -2.449293598294706513E-15, 20.00000000000000000 ) ) ;
#234 = FACE_OUTER_BOUND ( 'NONE', #186, .T. ) ;
#235 = ADVANCED_FACE ( 'NONE', ( #63, #47 ), #211, .T. ) ;
#236 = DIRECTION ( 'NONE',  ( 4.275831445896958607E-31, 1.000000000000000000, 1.224646799147352961E-16 ) ) ;
#237 = AXIS2_PLACEMENT_3D ( 'NONE', #181, #156, #79 ) ;
#238 = DIRECTION ( 'NONE',  ( -3.491481338843133355E-15, 1.224646799147353207E-16, -1.000000000000000000 ) ) ;
#239 = PERSON_AND_ORGANIZATION ( #109, #260 ) ;
#240 = SECURITY_CLASSIFICATION ( '', '', #28 ) ;
#241 = MECHANICAL_CONTEXT ( 'NONE', #56, 'mechanical' ) ;
#242 = PLANE ( 'NONE',  #89 ) ;
#243 = EDGE_LOOP ( 'NONE', ( #48 ) ) ;
#244 = EDGE_CURVE ( 'NONE', #10, #10, #148, .T. ) ;
#245 = DATE_TIME_ROLE ( 'creation_date' ) ;
#246 = ORIENTED_EDGE ( 'NONE', *, *, #81, .T. ) ;
#247 = AXIS2_PLACEMENT_3D ( 'NONE', #251, #60, #39 ) ;
#248 = ADVANCED_FACE ( 'NONE', ( #127, #193 ), #219, .T. ) ;
#249 = DIRECTION ( 'NONE',  ( 3.491481338843133355E-15, -1.224646799147353207E-16, 1.000000000000000000 ) ) ;
#250 = CARTESIAN_POINT ( 'NONE',  ( 0.0000000000000000000, 0.0000000000000000000, 0.0000000000000000000 ) ) ;
#251 = CARTESIAN_POINT ( 'NONE',  ( 3.491481338843133355E-14, -1.224646799147353256E-15, 10.00000000000000000 ) ) ;
#252 = ORIENTED_EDGE ( 'NONE', *, *, #76, .F. ) ;
#253 = FACE_OUTER_BOUND ( 'NONE', #35, .T. ) ;
#254 = DIRECTION ( 'NONE',  ( 0.0000000000000000000, 1.000000000000000000, 0.0000000000000000000 ) ) ;
#255 = AXIS2_PLACEMENT_3D ( 'NONE', #213, #216, #174 ) ;
#256 = CARTESIAN_POINT ( 'NONE',  ( 1.735266225405037467E-13, -6.086494591762345225E-15, 49.70000000000000284 ) ) ;
#257 = ADVANCED_BREP_SHAPE_REPRESENTATION ( '950039', ( #99, #206, #237 ), #137 ) ;
#258 = DIRECTION ( 'NONE',  ( 0.0000000000000000000, 1.000000000000000000, 0.0000000000000000000 ) ) ;
#259 = FACE_BOUND ( 'NONE', #107, .T. ) ;
#260 = ORGANIZATION ( 'UNSPECIFIED', 'UNSPECIFIED', '' ) ;
#261 = PERSON_AND_ORGANIZATION_ROLE ( 'creator' ) ;
#262 = AXIS2_PLACEMENT_3D ( 'NONE', #45, #122, #118 ) ;
#263 = APPLICATION_PROTOCOL_DEFINITION ( 'international standard', 'config_control_design', 1994, #13 ) ;
#264 = ORIENTED_EDGE ( 'NONE', *, *, #29, .T. ) ;
#265 = ADVANCED_FACE ( 'NONE', ( #68 ), #21, .F. ) ;
#266 =( NAMED_UNIT ( * ) SI_UNIT ( $, .STERADIAN. ) SOLID_ANGLE_UNIT ( ) );
#267 = SHAPE_DEFINITION_REPRESENTATION ( #92, #257 ) ;
#268 = EDGE_LOOP ( 'NONE', ( #94 ) ) ;
#269 = EDGE_LOOP ( 'NONE', ( #108 ) ) ;
#270 = CIRCLE ( 'NONE', #247, 1.213499999999994916 ) ;
#271 = DIRECTION ( 'NONE',  ( -3.491481338843133355E-15, 1.224646799147353207E-16, -1.000000000000000000 ) ) ;
#272 = ORIENTED_EDGE ( 'NONE', *, *, #172, .T. ) ;
#273 = CC_DESIGN_SECURITY_CLASSIFICATION ( #240, ( #116 ) ) ;
#274 = CC_DESIGN_DATE_AND_TIME_ASSIGNMENT ( #160, #245, ( #50 ) ) ;
#275 = DESIGN_CONTEXT ( 'detailed design', #13, 'design' ) ;
#276 = CARTESIAN_POINT ( 'NONE',  ( -4.571558350521422290E-31, 1.603486817700258199E-32, -1.309346350977823348E-16 ) ) ;
#277 = DIRECTION ( 'NONE',  ( -3.491481338843133355E-15, 1.224646799147353207E-16, -1.000000000000000000 ) ) ;
#278 = DIRECTION ( 'NONE',  ( 4.275831445896958607E-31, 1.000000000000000000, 1.224646799147353207E-16 ) ) ;
#279 = ADVANCED_FACE ( 'NONE', ( #23, #253 ), #145, .T. ) ;
#280 = CONICAL_SURFACE ( 'NONE', #297, 1.499999999999996669, 0.1745329251994266750 ) ;
#281 = DIRECTION ( 'NONE',  ( 0.0000000000000000000, 1.000000000000000000, 0.0000000000000000000 ) ) ;
#282 = CARTESIAN_POINT ( 'NONE',  ( 6.982962677686266711E-14, -2.602085213965210642E-15, 20.00000000000000000 ) ) ;
#283 = EDGE_LOOP ( 'NONE', ( #11 ) ) ;
#284 = DIRECTION ( 'NONE',  ( -3.491481338843133355E-15, 1.224646799147353207E-16, -1.000000000000000000 ) ) ;
#285 = DIRECTION ( 'NONE',  ( -3.491481338843133355E-15, 1.224646799147353207E-16, -1.000000000000000000 ) ) ;
#286 = DATE_AND_TIME ( #36, #67 ) ;
#287 = AXIS2_PLACEMENT_3D ( 'NONE', #61, #271, #190 ) ;
#288 = CC_DESIGN_APPROVAL ( #114, ( #116 ) ) ;
#289 = CARTESIAN_POINT ( 'NONE',  ( 3.584309283006850656E-14, 1.059999999999997611, 10.26586979896182150 ) ) ;
#290 = CC_DESIGN_PERSON_AND_ORGANIZATION_ASSIGNMENT ( #132, #30, ( #221 ) ) ;
#291 = PERSON_AND_ORGANIZATION_ROLE ( 'classification_officer' ) ;
#292 = ORIENTED_EDGE ( 'NONE', *, *, #244, .T. ) ;
#293 = CLOSED_SHELL ( 'NONE', ( #232, #248, #235, #147, #141, #120, #179, #85 ) ) ;
#294 = LOCAL_TIME ( 7, 45, 4.000000000000000000, #189 ) ;
#295 = APPROVAL_ROLE ( '' ) ;
#296 = CALENDAR_DATE ( 2021, 30, 11 ) ;
#297 = AXIS2_PLACEMENT_3D ( 'NONE', #5, #157, #2 ) ;
#298 = DIRECTION ( 'NONE',  ( 0.0000000000000000000, 1.000000000000000000, 0.0000000000000000000 ) ) ;
#299 = APPROVAL_DATE_TIME ( #207, #133 ) ;
#300 = EDGE_LOOP ( 'NONE', ( #159 ) ) ;
#301 = DIRECTION ( 'NONE',  ( -3.491481338843133355E-15, 1.224646799147353207E-16, -1.000000000000000000 ) ) ;
#302 = CC_DESIGN_PERSON_AND_ORGANIZATION_ASSIGNMENT ( #201, #52, ( #116 ) ) ;
#303 = AXIS2_PLACEMENT_3D ( 'NONE', #126, #238, #236 ) ;
ENDSEC;
END-ISO-10303-21;
