ISO-10303-21;
HEADER;
FILE_DESCRIPTION (( 'STEP AP203' ),
    '1' );
FILE_NAME ('950038.step',
    '2021-11-30T06:45:04',
    ( '' ),
    ( '' ),
    'SwSTEP 2.0',
    'SolidWorks 2019',
    '' );
FILE_SCHEMA (( 'CONFIG_CONTROL_DESIGN' ));
ENDSEC;

DATA;
#1 = CIRCLE ( 'NONE', #119, 1.208499999999995245 ) ;
#2 = COORDINATED_UNIVERSAL_TIME_OFFSET ( 1, 0, .AHEAD. ) ;
#3 = DIRECTION ( 'NONE',  ( 0.0000000000000000000, 1.000000000000000000, 0.0000000000000000000 ) ) ;
#4 = DATE_AND_TIME ( #155, #217 ) ;
#5 = DIRECTION ( 'NONE',  ( 4.275831445896958607E-31, 1.000000000000000000, 1.224646799147353207E-16 ) ) ;
#6 = ADVANCED_FACE ( 'NONE', ( #153, #150 ), #239, .T. ) ;
#7 = VERTEX_POINT ( 'NONE', #157 ) ;
#8 = DIRECTION ( 'NONE',  ( -3.491481338843133355E-15, 1.224646799147353207E-16, -1.000000000000000000 ) ) ;
#9 = APPROVAL_PERSON_ORGANIZATION ( #90, #137, #142 ) ;
#10 = CARTESIAN_POINT ( 'NONE',  ( 3.584309283006850024E-14, 1.054999999999997717, 10.26586979896181973 ) ) ;
#11 = DIRECTION ( 'NONE',  ( 0.0000000000000000000, 1.000000000000000000, 0.0000000000000000000 ) ) ;
#12 = DIRECTION ( 'NONE',  ( 0.0000000000000000000, 1.000000000000000000, 0.0000000000000000000 ) ) ;
#13 =( NAMED_UNIT ( * ) PLANE_ANGLE_UNIT ( ) SI_UNIT ( $, .RADIAN. ) );
#14 = CARTESIAN_POINT ( 'NONE',  ( 7.925207956401452049E-14, -2.779788752816310722E-15, 22.69869773678180280 ) ) ;
#15 = DIRECTION ( 'NONE',  ( 0.0000000000000000000, 1.000000000000000000, 0.0000000000000000000 ) ) ;
#16 = VERTEX_POINT ( 'NONE', #204 ) ;
#17 = EDGE_LOOP ( 'NONE', ( #162 ) ) ;
#18 = ORIENTED_EDGE ( 'NONE', *, *, #191, .T. ) ;
#19 = AXIS2_PLACEMENT_3D ( 'NONE', #56, #193, #35 ) ;
#20 = ORIENTED_EDGE ( 'NONE', *, *, #64, .T. ) ;
#21 = PERSON_AND_ORGANIZATION_ROLE ( 'design_supplier' ) ;
#22 = ADVANCED_FACE ( 'NONE', ( #78, #132 ), #74, .T. ) ;
#23 = ORIENTED_EDGE ( 'NONE', *, *, #143, .F. ) ;
#24 = APPROVAL_DATE_TIME ( #4, #299 ) ;
#25 = AXIS2_PLACEMENT_3D ( 'NONE', #244, #158, #242 ) ;
#26 = SECURITY_CLASSIFICATION ( '', '', #234 ) ;
#27 = CC_DESIGN_PERSON_AND_ORGANIZATION_ASSIGNMENT ( #166, #114, ( #26 ) ) ;
#28 = CARTESIAN_POINT ( 'NONE',  ( 0.0000000000000000000, 0.0000000000000000000, 0.0000000000000000000 ) ) ;
#29 = AXIS2_PLACEMENT_3D ( 'NONE', #75, #95, #53 ) ;
#30 = ADVANCED_FACE ( 'NONE', ( #220, #156 ), #40, .T. ) ;
#31 = PERSON_AND_ORGANIZATION_ROLE ( 'design_owner' ) ;
#32 = DIRECTION ( 'NONE',  ( 0.0000000000000000000, 1.000000000000000000, 0.0000000000000000000 ) ) ;
#33 = DIRECTION ( 'NONE',  ( 0.0000000000000000000, -1.000000000000000000, 0.0000000000000000000 ) ) ;
#34 = DIRECTION ( 'NONE',  ( -3.491481338843133355E-15, 1.224646799147353207E-16, -1.000000000000000000 ) ) ;
#35 = DIRECTION ( 'NONE',  ( 4.780959729550465084E-31, 1.000000000000000000, 1.345720528529801368E-16 ) ) ;
#36 = DIRECTION ( 'NONE',  ( -3.491481338843133355E-15, 1.224646799147353207E-16, -1.000000000000000000 ) ) ;
#37 = CARTESIAN_POINT ( 'NONE',  ( 3.491481338843133355E-14, 9.062298486734219775E-33, 10.00000000000000000 ) ) ;
#38 = VERTEX_POINT ( 'NONE', #107 ) ;
#39 = FACE_OUTER_BOUND ( 'NONE', #175, .T. ) ;
#40 = CONICAL_SURFACE ( 'NONE', #160, 1.200000000000001732, 0.7853981633974453924 ) ;
#41 = EDGE_LOOP ( 'NONE', ( #232 ) ) ;
#42 = PERSON_AND_ORGANIZATION ( #292, #91 ) ;
#43 = APPROVAL_DATE_TIME ( #215, #189 ) ;
#44 = CALENDAR_DATE ( 2021, 30, 11 ) ;
#45 = DIRECTION ( 'NONE',  ( 1.000000000000000000, 0.0000000000000000000, 0.0000000000000000000 ) ) ;
#46 = EDGE_LOOP ( 'NONE', ( #138 ) ) ;
#47 = SHAPE_DEFINITION_REPRESENTATION ( #98, #202 ) ;
#48 = APPROVAL_DATE_TIME ( #167, #137 ) ;
#49 = AXIS2_PLACEMENT_3D ( 'NONE', #28, #296, #45 ) ;
#50 = EDGE_CURVE ( 'NONE', #149, #149, #303, .T. ) ;
#51 = FACE_OUTER_BOUND ( 'NONE', #136, .T. ) ;
#52 = DIRECTION ( 'NONE',  ( -4.780959729550465084E-31, -1.000000000000000000, -1.345720528529801368E-16 ) ) ;
#53 = DIRECTION ( 'NONE',  ( 4.275831445896958607E-31, 1.000000000000000000, 1.224646799147353207E-16 ) ) ;
#54 = DIRECTION ( 'NONE',  ( -3.491481338843133355E-15, 1.224646799147353207E-16, -1.000000000000000000 ) ) ;
#55 = MANIFOLD_SOLID_BREP ( 'Corps-Déplacer/Copier1[2]', #208 ) ;
#56 = CARTESIAN_POINT ( 'NONE',  ( 8.728703347107827472E-16, -3.061616997868381169E-17, 0.2499999999999998335 ) ) ;
#57 = DIRECTION ( 'NONE',  ( 0.0000000000000000000, 1.000000000000000000, 0.0000000000000000000 ) ) ;
#58 = CIRCLE ( 'NONE', #19, 1.208499999999993912 ) ;
#59 = PRODUCT ( '950038', '950038', '', ( #88 ) ) ;
#60 = CYLINDRICAL_SURFACE ( 'NONE', #121, 1.054999999999999494 ) ;
#61 = VERTEX_POINT ( 'NONE', #200 ) ;
#62 = APPLICATION_CONTEXT ( 'configuration controlled 3d designs of mechanical parts and assemblies' ) ;
#63 = DIRECTION ( 'NONE',  ( -3.491481338843133355E-15, 1.224646799147353207E-16, -1.000000000000000000 ) ) ;
#64 = EDGE_CURVE ( 'NONE', #7, #7, #147, .T. ) ;
#65 = VERTEX_POINT ( 'NONE', #294 ) ;
#66 = ORIENTED_EDGE ( 'NONE', *, *, #64, .F. ) ;
#67 = CIRCLE ( 'NONE', #235, 1.064162432702589367 ) ;
#68 = ORIENTED_EDGE ( 'NONE', *, *, #191, .F. ) ;
#69 = CC_DESIGN_PERSON_AND_ORGANIZATION_ASSIGNMENT ( #188, #113, ( #99 ) ) ;
#70 = ADVANCED_FACE ( 'NONE', ( #238, #86 ), #60, .T. ) ;
#71 = DIRECTION ( 'NONE',  ( -4.275831445896958607E-31, -1.000000000000000000, -1.224646799147353207E-16 ) ) ;
#72 = APPLICATION_PROTOCOL_DEFINITION ( 'international standard', 'config_control_design', 1994, #62 ) ;
#73 = DIRECTION ( 'NONE',  ( 3.491481338843133355E-15, -1.224646799147353207E-16, 1.000000000000000000 ) ) ;
#74 = CONICAL_SURFACE ( 'NONE', #261, 1.054999999999999050, 0.5235987755982941527 ) ;
#75 = CARTESIAN_POINT ( 'NONE',  ( 6.982962677686266711E-14, -2.602085213965210642E-15, 20.00000000000000000 ) ) ;
#76 = FACE_OUTER_BOUND ( 'NONE', #233, .T. ) ;
#77 = FACE_BOUND ( 'NONE', #17, .T. ) ;
#78 = FACE_OUTER_BOUND ( 'NONE', #230, .T. ) ;
#79 = CARTESIAN_POINT ( 'NONE',  ( 7.925207956401452049E-14, -2.779788752816310722E-15, 22.69869773678180280 ) ) ;
#80 = EDGE_CURVE ( 'NONE', #38, #38, #1, .T. ) ;
#81 = DIRECTION ( 'NONE',  ( -3.491481338843133355E-15, 1.224646799147353207E-16, -1.000000000000000000 ) ) ;
#82 = CARTESIAN_POINT ( 'NONE',  ( 7.104220552055901835E-14, 1.085384493975579234, 20.34729635533384595 ) ) ;
#83 = EDGE_CURVE ( 'NONE', #16, #16, #271, .T. ) ;
#84 = ORIENTED_EDGE ( 'NONE', *, *, #205, .F. ) ;
#85 = VERTEX_POINT ( 'NONE', #82 ) ;
#86 = FACE_OUTER_BOUND ( 'NONE', #89, .T. ) ;
#87 = LOCAL_TIME ( 7, 45, 4.000000000000000000, #211 ) ;
#88 = MECHANICAL_CONTEXT ( 'NONE', #123, 'mechanical' ) ;
#89 = EDGE_LOOP ( 'NONE', ( #266 ) ) ;
#90 = PERSON_AND_ORGANIZATION ( #292, #91 ) ;
#91 = ORGANIZATION ( 'UNSPECIFIED', 'UNSPECIFIED', '' ) ;
#92 = CIRCLE ( 'NONE', #145, 1.085384493975581677 ) ;
#93 = PLANE ( 'NONE',  #268 ) ;
#94 = DIRECTION ( 'NONE',  ( -4.275831445896958607E-31, -1.000000000000000000, -1.224646799147353207E-16 ) ) ;
#95 = DIRECTION ( 'NONE',  ( -3.491481338843133355E-15, 1.224646799147353207E-16, -1.000000000000000000 ) ) ;
#96 = AXIS2_PLACEMENT_3D ( 'NONE', #129, #73, #94 ) ;
#97 = DIRECTION ( 'NONE',  ( -3.491481338843133355E-15, 1.224646799147353207E-16, -1.000000000000000000 ) ) ;
#98 = PRODUCT_DEFINITION_SHAPE ( 'NONE', 'NONE',  #99 ) ;
#99 = PRODUCT_DEFINITION ( 'UNKNOWN', '', #275, #170 ) ;
#100 = CARTESIAN_POINT ( 'NONE',  ( 6.982962677686266711E-14, -2.449293598294706513E-15, 20.00000000000000000 ) ) ;
#101 = DIRECTION ( 'NONE',  ( 3.491481338843133355E-15, -1.224646799147353207E-16, 1.000000000000000000 ) ) ;
#102 = CARTESIAN_POINT ( 'NONE',  ( 7.104220552055901835E-14, -2.491825135286219831E-15, 20.34729635533384595 ) ) ;
#103 = APPROVAL_STATUS ( 'not_yet_approved' ) ;
#104 = ADVANCED_FACE ( 'NONE', ( #39, #76 ), #106, .T. ) ;
#105 = AXIS2_PLACEMENT_3D ( 'NONE', #290, #36, #199 ) ;
#106 = CYLINDRICAL_SURFACE ( 'NONE', #262, 1.499999999999999112 ) ;
#107 = CARTESIAN_POINT ( 'NONE',  ( 3.491481338843133355E-14, 1.208499999999993912, 10.00000000000000000 ) ) ;
#108 = DIRECTION ( 'NONE',  ( 4.275831445896958607E-31, 1.000000000000000000, 1.224646799147352961E-16 ) ) ;
#109 =( NAMED_UNIT ( * ) SI_UNIT ( $, .STERADIAN. ) SOLID_ANGLE_UNIT ( ) );
#110 = ORIENTED_EDGE ( 'NONE', *, *, #50, .F. ) ;
#111 = ORIENTED_EDGE ( 'NONE', *, *, #83, .F. ) ;
#112 = CIRCLE ( 'NONE', #179, 1.208499999999995245 ) ;
#113 = PERSON_AND_ORGANIZATION_ROLE ( 'creator' ) ;
#114 = PERSON_AND_ORGANIZATION_ROLE ( 'classification_officer' ) ;
#115 = CC_DESIGN_PERSON_AND_ORGANIZATION_ASSIGNMENT ( #42, #21, ( #275 ) ) ;
#116 = ORIENTED_EDGE ( 'NONE', *, *, #80, .T. ) ;
#117 = DATE_AND_TIME ( #298, #122 ) ;
#118 = EDGE_CURVE ( 'NONE', #225, #225, #281, .T. ) ;
#119 = AXIS2_PLACEMENT_3D ( 'NONE', #223, #264, #57 ) ;
#120 = APPROVAL_ROLE ( '' ) ;
#121 = AXIS2_PLACEMENT_3D ( 'NONE', #183, #81, #108 ) ;
#122 = LOCAL_TIME ( 7, 45, 4.000000000000000000, #256 ) ;
#123 = APPLICATION_CONTEXT ( 'configuration controlled 3d designs of mechanical parts and assemblies' ) ;
#124 = APPROVAL_STATUS ( 'not_yet_approved' ) ;
#125 = CARTESIAN_POINT ( 'NONE',  ( 0.0000000000000000000, 0.0000000000000000000, 0.0000000000000000000 ) ) ;
#126 = DIRECTION ( 'NONE',  ( -3.491481338843133355E-15, 1.224646799147353207E-16, -1.000000000000000000 ) ) ;
#127 = CC_DESIGN_SECURITY_CLASSIFICATION ( #26, ( #275 ) ) ;
#128 = EDGE_LOOP ( 'NONE', ( #228 ) ) ;
#129 = CARTESIAN_POINT ( 'NONE',  ( -3.221457509837549795E-31, 1.129935189434219531E-32, -9.226621016124195910E-17 ) ) ;
#130 = DIRECTION ( 'NONE',  ( -3.491481338843133355E-15, 1.224646799147353207E-16, -1.000000000000000000 ) ) ;
#131 = EDGE_CURVE ( 'NONE', #135, #135, #112, .T. ) ;
#132 = FACE_BOUND ( 'NONE', #128, .T. ) ;
#133 = AXIS2_PLACEMENT_3D ( 'NONE', #196, #148, #3 ) ;
#134 = CARTESIAN_POINT ( 'NONE',  ( 3.491481338843133355E-14, -1.224646799147353256E-15, 10.00000000000000000 ) ) ;
#135 = VERTEX_POINT ( 'NONE', #207 ) ;
#136 = EDGE_LOOP ( 'NONE', ( #116 ) ) ;
#137 = APPROVAL ( #178, 'UNSPECIFIED' ) ;
#138 = ORIENTED_EDGE ( 'NONE', *, *, #131, .F. ) ;
#139 = AXIS2_PLACEMENT_3D ( 'NONE', #14, #54, #11 ) ;
#140 = DATE_AND_TIME ( #44, #227 ) ;
#141 = EDGE_LOOP ( 'NONE', ( #301 ) ) ;
#142 = APPROVAL_ROLE ( '' ) ;
#143 = EDGE_CURVE ( 'NONE', #85, #85, #92, .T. ) ;
#144 = APPLICATION_PROTOCOL_DEFINITION ( 'international standard', 'config_control_design', 1994, #123 ) ;
#145 = AXIS2_PLACEMENT_3D ( 'NONE', #102, #130, #206 ) ;
#146 = PLANE ( 'NONE',  #96 ) ;
#147 = CIRCLE ( 'NONE', #139, 1.499999999999996669 ) ;
#148 = DIRECTION ( 'NONE',  ( -3.491481338843133355E-15, 1.224646799147353207E-16, -1.000000000000000000 ) ) ;
#149 = VERTEX_POINT ( 'NONE', #10 ) ;
#150 = FACE_OUTER_BOUND ( 'NONE', #41, .T. ) ;
#151 = FACE_OUTER_BOUND ( 'NONE', #141, .T. ) ;
#152 = CC_DESIGN_APPROVAL ( #189, ( #99 ) ) ;
#153 = FACE_OUTER_BOUND ( 'NONE', #185, .T. ) ;
#154 = CARTESIAN_POINT ( 'NONE',  ( -6.442915019675099590E-31, 2.259870378868439062E-32, -1.845324203224839182E-16 ) ) ;
#155 = CALENDAR_DATE ( 2021, 30, 11 ) ;
#156 = FACE_BOUND ( 'NONE', #249, .T. ) ;
#157 = CARTESIAN_POINT ( 'NONE',  ( 7.925207956401452049E-14, 1.499999999999994005, 22.69869773678180280 ) ) ;
#158 = DIRECTION ( 'NONE',  ( -3.491481338843133355E-15, 1.224646799147353207E-16, -1.000000000000000000 ) ) ;
#159 = APPROVAL_ROLE ( '' ) ;
#160 = AXIS2_PLACEMENT_3D ( 'NONE', #285, #34, #15 ) ;
#161 = CONICAL_SURFACE ( 'NONE', #171, 1.499999999999996669, 0.1745329251994261754 ) ;
#162 = ORIENTED_EDGE ( 'NONE', *, *, #276, .F. ) ;
#163 = EDGE_LOOP ( 'NONE', ( #23 ) ) ;
#164 = PERSON_AND_ORGANIZATION ( #292, #91 ) ;
#165 = CC_DESIGN_PERSON_AND_ORGANIZATION_ASSIGNMENT ( #164, #302, ( #275 ) ) ;
#166 = PERSON_AND_ORGANIZATION ( #292, #91 ) ;
#167 = DATE_AND_TIME ( #251, #87 ) ;
#168 = ADVANCED_FACE ( 'NONE', ( #293 ), #287, .T. ) ;
#169 = AXIS2_PLACEMENT_3D ( 'NONE', #219, #177, #5 ) ;
#170 = DESIGN_CONTEXT ( 'detailed design', #62, 'design' ) ;
#171 = AXIS2_PLACEMENT_3D ( 'NONE', #79, #101, #33 ) ;
#172 = ADVANCED_FACE ( 'NONE', ( #77, #260 ), #236, .T. ) ;
#173 = PERSON_AND_ORGANIZATION ( #292, #91 ) ;
#174 = LOCAL_TIME ( 7, 45, 4.000000000000000000, #2 ) ;
#175 = EDGE_LOOP ( 'NONE', ( #66 ) ) ;
#176 = EDGE_LOOP ( 'NONE', ( #295 ) ) ;
#177 = DIRECTION ( 'NONE',  ( -3.491481338843133355E-15, 1.224646799147353207E-16, -1.000000000000000000 ) ) ;
#178 = APPROVAL_STATUS ( 'not_yet_approved' ) ;
#179 = AXIS2_PLACEMENT_3D ( 'NONE', #134, #197, #12 ) ;
#180 = EDGE_LOOP ( 'NONE', ( #110 ) ) ;
#181 = CARTESIAN_POINT ( 'NONE',  ( 0.0000000000000000000, 0.0000000000000000000, 0.0000000000000000000 ) ) ;
#182 = CARTESIAN_POINT ( 'NONE',  ( 1.735266225405037467E-13, 1.499999999999995559, 49.70000000000000284 ) ) ;
#183 = CARTESIAN_POINT ( 'NONE',  ( 0.0000000000000000000, 0.0000000000000000000, 0.0000000000000000000 ) ) ;
#184 = VERTEX_POINT ( 'NONE', #182 ) ;
#185 = EDGE_LOOP ( 'NONE', ( #84 ) ) ;
#186 = EDGE_LOOP ( 'NONE', ( #20 ) ) ;
#187 = TOROIDAL_SURFACE ( 'NONE', #29, 3.055000000000000604, 2.000000000000000000 ) ;
#188 = PERSON_AND_ORGANIZATION ( #292, #91 ) ;
#189 = APPROVAL ( #124, 'UNSPECIFIED' ) ;
#190 = AXIS2_PLACEMENT_3D ( 'NONE', #181, #63, #221 ) ;
#191 = EDGE_CURVE ( 'NONE', #184, #184, #255, .T. ) ;
#192 = FACE_OUTER_BOUND ( 'NONE', #186, .T. ) ;
#193 = DIRECTION ( 'NONE',  ( -3.491481338843133355E-15, 1.224646799147353207E-16, -1.000000000000000000 ) ) ;
#194 = APPROVAL_PERSON_ORGANIZATION ( #173, #189, #120 ) ;
#195 = DIRECTION ( 'NONE',  ( 0.0000000000000000000, 1.000000000000000000, 0.0000000000000000000 ) ) ;
#196 = CARTESIAN_POINT ( 'NONE',  ( 1.735266225405037467E-13, -6.086494591762345225E-15, 49.70000000000000284 ) ) ;
#197 = DIRECTION ( 'NONE',  ( -3.491481338843133355E-15, 1.224646799147353207E-16, -1.000000000000000000 ) ) ;
#198 = PLANE ( 'NONE',  #169 ) ;
#199 = DIRECTION ( 'NONE',  ( 0.0000000000000000000, 1.000000000000000000, 0.0000000000000000000 ) ) ;
#200 = CARTESIAN_POINT ( 'NONE',  ( 8.728703347107833388E-16, 1.208499999999993912, 0.2500000000000000000 ) ) ;
#201 = APPROVAL_PERSON_ORGANIZATION ( #229, #299, #159 ) ;
#202 = ADVANCED_BREP_SHAPE_REPRESENTATION ( '950038', ( #259, #55, #49 ), #278 ) ;
#203 = DIRECTION ( 'NONE',  ( 3.491481338843133355E-15, -1.224646799147353207E-16, 1.000000000000000000 ) ) ;
#204 = CARTESIAN_POINT ( 'NONE',  ( 1.745740669421566678E-13, 1.199999999999995515, 50.00000000000000000 ) ) ;
#205 = EDGE_CURVE ( 'NONE', #61, #61, #58, .T. ) ;
#206 = DIRECTION ( 'NONE',  ( 0.0000000000000000000, 1.000000000000000000, 0.0000000000000000000 ) ) ;
#207 = CARTESIAN_POINT ( 'NONE',  ( 3.491481338843133355E-14, 1.208499999999993912, 10.00000000000000000 ) ) ;
#208 = CLOSED_SHELL ( 'NONE', ( #245, #172, #6, #168 ) ) ;
#209 = AXIS2_PLACEMENT_3D ( 'NONE', #37, #203, #71 ) ;
#210 = ORIENTED_EDGE ( 'NONE', *, *, #118, .F. ) ;
#211 = COORDINATED_UNIVERSAL_TIME_OFFSET ( 1, 0, .AHEAD. ) ;
#212 = ORIENTED_EDGE ( 'NONE', *, *, #83, .T. ) ;
#213 = DATE_TIME_ROLE ( 'classification_date' ) ;
#214 = CC_DESIGN_APPROVAL ( #299, ( #275 ) ) ;
#215 = DATE_AND_TIME ( #252, #174 ) ;
#216 = PRODUCT_RELATED_PRODUCT_CATEGORY ( 'detail', '', ( #59 ) ) ;
#217 = LOCAL_TIME ( 7, 45, 4.000000000000000000, #224 ) ;
#218 = ADVANCED_FACE ( 'NONE', ( #286, #192 ), #161, .T. ) ;
#219 = CARTESIAN_POINT ( 'NONE',  ( 1.745740669421566678E-13, 8.998558695971067645E-33, 50.00000000000000000 ) ) ;
#220 = FACE_OUTER_BOUND ( 'NONE', #247, .T. ) ;
#221 = DIRECTION ( 'NONE',  ( 4.275831445896958607E-31, 1.000000000000000000, 1.224646799147353207E-16 ) ) ;
#222 = DIRECTION ( 'NONE',  ( 4.275831445896958607E-31, 1.000000000000000000, 1.224646799147353454E-16 ) ) ;
#223 = CARTESIAN_POINT ( 'NONE',  ( 3.491481338843133355E-14, -1.224646799147353256E-15, 10.00000000000000000 ) ) ;
#224 = COORDINATED_UNIVERSAL_TIME_OFFSET ( 1, 0, .AHEAD. ) ;
#225 = VERTEX_POINT ( 'NONE', #291 ) ;
#226 = ADVANCED_FACE ( 'NONE', ( #280 ), #198, .F. ) ;
#227 = LOCAL_TIME ( 7, 45, 4.000000000000000000, #254 ) ;
#228 = ORIENTED_EDGE ( 'NONE', *, *, #50, .T. ) ;
#229 = PERSON_AND_ORGANIZATION ( #292, #91 ) ;
#230 = EDGE_LOOP ( 'NONE', ( #297 ) ) ;
#231 = EDGE_LOOP ( 'NONE', ( #111 ) ) ;
#232 = ORIENTED_EDGE ( 'NONE', *, *, #131, .T. ) ;
#233 = EDGE_LOOP ( 'NONE', ( #18 ) ) ;
#234 = SECURITY_CLASSIFICATION_LEVEL ( 'unclassified' ) ;
#235 = AXIS2_PLACEMENT_3D ( 'NONE', #154, #126, #243 ) ;
#236 = CONICAL_SURFACE ( 'NONE', #289, 1.208499999999993912, 0.5235987755982927094 ) ;
#237 = FACE_OUTER_BOUND ( 'NONE', #274, .T. ) ;
#238 = FACE_OUTER_BOUND ( 'NONE', #180, .T. ) ;
#239 = CYLINDRICAL_SURFACE ( 'NONE', #190, 1.208499999999994579 ) ;
#240 = CARTESIAN_POINT ( 'NONE',  ( 8.728703347107827472E-16, -3.061616997868381169E-17, 0.2499999999999998335 ) ) ;
#241 = CLOSED_SHELL ( 'NONE', ( #257, #22, #70, #300, #218, #104, #30, #226 ) ) ;
#242 = DIRECTION ( 'NONE',  ( 0.0000000000000000000, 1.000000000000000000, 0.0000000000000000000 ) ) ;
#243 = DIRECTION ( 'NONE',  ( 4.275831445896959482E-31, 1.000000000000000000, 1.224646799147353454E-16 ) ) ;
#244 = CARTESIAN_POINT ( 'NONE',  ( 3.584309283006850024E-14, -1.257206458976207263E-15, 10.26586979896181973 ) ) ;
#245 = ADVANCED_FACE ( 'NONE', ( #151 ), #146, .F. ) ;
#246 =( LENGTH_UNIT ( ) NAMED_UNIT ( * ) SI_UNIT ( .MILLI., .METRE. ) );
#247 = EDGE_LOOP ( 'NONE', ( #68 ) ) ;
#248 = DATE_TIME_ROLE ( 'creation_date' ) ;
#249 = EDGE_LOOP ( 'NONE', ( #212 ) ) ;
#250 = ORIENTED_EDGE ( 'NONE', *, *, #143, .T. ) ;
#251 = CALENDAR_DATE ( 2021, 30, 11 ) ;
#252 = CALENDAR_DATE ( 2021, 30, 11 ) ;
#253 = CC_DESIGN_DATE_AND_TIME_ASSIGNMENT ( #140, #248, ( #99 ) ) ;
#254 = COORDINATED_UNIVERSAL_TIME_OFFSET ( 1, 0, .AHEAD. ) ;
#255 = CIRCLE ( 'NONE', #133, 1.500000000000001554 ) ;
#256 = COORDINATED_UNIVERSAL_TIME_OFFSET ( 1, 0, .AHEAD. ) ;
#257 = ADVANCED_FACE ( 'NONE', ( #51 ), #93, .F. ) ;
#258 = CC_DESIGN_APPROVAL ( #137, ( #26 ) ) ;
#259 = MANIFOLD_SOLID_BREP ( 'Corps-Déplacer/Copier1[1]', #241 ) ;
#260 = FACE_OUTER_BOUND ( 'NONE', #176, .T. ) ;
#261 = AXIS2_PLACEMENT_3D ( 'NONE', #283, #8, #32 ) ;
#262 = AXIS2_PLACEMENT_3D ( 'NONE', #125, #270, #222 ) ;
#263 = FACE_OUTER_BOUND ( 'NONE', #272, .T. ) ;
#264 = DIRECTION ( 'NONE',  ( -3.491481338843133355E-15, 1.224646799147353207E-16, -1.000000000000000000 ) ) ;
#265 = DIRECTION ( 'NONE',  ( 3.491481338843133355E-15, -1.224646799147353207E-16, 1.000000000000000000 ) ) ;
#266 = ORIENTED_EDGE ( 'NONE', *, *, #118, .T. ) ;
#267 = CARTESIAN_POINT ( 'NONE',  ( 3.491481338843133355E-14, 9.062298486734219775E-33, 10.00000000000000000 ) ) ;
#268 = AXIS2_PLACEMENT_3D ( 'NONE', #267, #265, #282 ) ;
#269 = CC_DESIGN_PERSON_AND_ORGANIZATION_ASSIGNMENT ( #279, #31, ( #59 ) ) ;
#270 = DIRECTION ( 'NONE',  ( -3.491481338843133355E-15, 1.224646799147353207E-16, -1.000000000000000000 ) ) ;
#271 = CIRCLE ( 'NONE', #105, 1.200000000000001732 ) ;
#272 = EDGE_LOOP ( 'NONE', ( #210 ) ) ;
#273 = CC_DESIGN_DATE_AND_TIME_ASSIGNMENT ( #117, #213, ( #26 ) ) ;
#274 = EDGE_LOOP ( 'NONE', ( #250 ) ) ;
#275 = PRODUCT_DEFINITION_FORMATION_WITH_SPECIFIED_SOURCE ( 'ANY', '', #59, .NOT_KNOWN. ) ;
#276 = EDGE_CURVE ( 'NONE', #65, #65, #67, .T. ) ;
#277 = UNCERTAINTY_MEASURE_WITH_UNIT (LENGTH_MEASURE( 1.000000000000000082E-05 ), #246, 'distance_accuracy_value', 'NONE');
#278 =( GEOMETRIC_REPRESENTATION_CONTEXT ( 3 ) GLOBAL_UNCERTAINTY_ASSIGNED_CONTEXT ( ( #277 ) ) GLOBAL_UNIT_ASSIGNED_CONTEXT ( ( #246, #13, #109 ) ) REPRESENTATION_CONTEXT ( 'NONE', 'WORKASPACE' ) );
#279 = PERSON_AND_ORGANIZATION ( #292, #91 ) ;
#280 = FACE_OUTER_BOUND ( 'NONE', #231, .T. ) ;
#281 = CIRCLE ( 'NONE', #288, 1.055000000000000160 ) ;
#282 = DIRECTION ( 'NONE',  ( -4.275831445896958607E-31, -1.000000000000000000, -1.224646799147353207E-16 ) ) ;
#283 = CARTESIAN_POINT ( 'NONE',  ( 3.584309283006850024E-14, -1.257206458976207263E-15, 10.26586979896181973 ) ) ;
#284 = DIRECTION ( 'NONE',  ( 3.491481338843133355E-15, -1.224646799147353207E-16, 1.000000000000000000 ) ) ;
#285 = CARTESIAN_POINT ( 'NONE',  ( 1.745740669421566678E-13, -6.123233995736766085E-15, 50.00000000000000000 ) ) ;
#286 = FACE_BOUND ( 'NONE', #163, .T. ) ;
#287 = PLANE ( 'NONE',  #209 ) ;
#288 = AXIS2_PLACEMENT_3D ( 'NONE', #100, #97, #195 ) ;
#289 = AXIS2_PLACEMENT_3D ( 'NONE', #240, #284, #52 ) ;
#290 = CARTESIAN_POINT ( 'NONE',  ( 1.745740669421566678E-13, -6.123233995736766085E-15, 50.00000000000000000 ) ) ;
#291 = CARTESIAN_POINT ( 'NONE',  ( 6.982962677686266711E-14, 1.054999999999997717, 20.00000000000000000 ) ) ;
#292 = PERSON ( 'UNSPECIFIED', 'UNSPECIFIED', 'UNSPECIFIED', ('UNSPECIFIED'), ('UNSPECIFIED'), ('UNSPECIFIED') ) ;
#293 = FACE_OUTER_BOUND ( 'NONE', #46, .T. ) ;
#294 = CARTESIAN_POINT ( 'NONE',  ( -1.892735826383161356E-31, 1.064162432702589367, -5.421010862427522170E-17 ) ) ;
#295 = ORIENTED_EDGE ( 'NONE', *, *, #205, .T. ) ;
#296 = DIRECTION ( 'NONE',  ( 0.0000000000000000000, 0.0000000000000000000, 1.000000000000000000 ) ) ;
#297 = ORIENTED_EDGE ( 'NONE', *, *, #80, .F. ) ;
#298 = CALENDAR_DATE ( 2021, 30, 11 ) ;
#299 = APPROVAL ( #103, 'UNSPECIFIED' ) ;
#300 = ADVANCED_FACE ( 'NONE', ( #263, #237 ), #187, .F. ) ;
#301 = ORIENTED_EDGE ( 'NONE', *, *, #276, .T. ) ;
#302 = PERSON_AND_ORGANIZATION_ROLE ( 'creator' ) ;
#303 = CIRCLE ( 'NONE', #25, 1.054999999999999050 ) ;
ENDSEC;
END-ISO-10303-21;
