ISO-10303-21;
HEADER;
FILE_DESCRIPTION (( 'STEP AP203' ),
    '1' );
FILE_NAME ('95.step',
    '2021-10-06T11:26:36',
    ( '' ),
    ( '' ),
    'SwSTEP 2.0',
    'SolidWorks 2019',
    '' );
FILE_SCHEMA (( 'CONFIG_CONTROL_DESIGN' ));
ENDSEC;

DATA;
#1 = FACE_OUTER_BOUND ( 'NONE', #155, .T. ) ;
#2 = ADVANCED_FACE ( 'NONE', ( #194 ), #52, .F. ) ;
#3 = CARTESIAN_POINT ( 'NONE',  ( 5.698365703127373313E-16, 0.3499999999999953149, 0.1632076803542495402 ) ) ;
#4 = CONICAL_SURFACE ( 'NONE', #145, 0.3499999999999953149, 1.134464013796309123 ) ;
#5 = ORIENTED_EDGE ( 'NONE', *, *, #105, .F. ) ;
#6 = CARTESIAN_POINT ( 'NONE',  ( 1.326762908760390423E-13, -4.653657836759941941E-15, 38.00000000000000000 ) ) ;
#7 = CARTESIAN_POINT ( 'NONE',  ( 1.323271427421547605E-13, -4.641411368768468584E-15, 37.89999999999999858 ) ) ;
#8 = CARTESIAN_POINT ( 'NONE',  ( 4.538925740496073362E-14, 0.3499999999999953149, 13.00000000000000000 ) ) ;
#9 = CIRCLE ( 'NONE', #56, 0.3499999999999953149 ) ;
#10 = UNCERTAINTY_MEASURE_WITH_UNIT (LENGTH_MEASURE( 1.000000000000000082E-05 ), #14, 'distance_accuracy_value', 'NONE');
#11 = CC_DESIGN_PERSON_AND_ORGANIZATION_ASSIGNMENT ( #122, #92, ( #168 ) ) ;
#12 = EDGE_LOOP ( 'NONE', ( #31 ) ) ;
#13 = DIRECTION ( 'NONE',  ( 4.275831445896958607E-31, 1.000000000000000000, 1.224646799147353207E-16 ) ) ;
#14 =( LENGTH_UNIT ( ) NAMED_UNIT ( * ) SI_UNIT ( .MILLI., .METRE. ) );
#15 = DATE_AND_TIME ( #94, #148 ) ;
#16 = EDGE_LOOP ( 'NONE', ( #22 ) ) ;
#17 = ORIENTED_EDGE ( 'NONE', *, *, #151, .T. ) ;
#18 = APPROVAL_STATUS ( 'not_yet_approved' ) ;
#19 = AXIS2_PLACEMENT_3D ( 'NONE', #176, #71, #27 ) ;
#20 = ADVANCED_FACE ( 'NONE', ( #40, #113 ), #30, .T. ) ;
#21 = DIRECTION ( 'NONE',  ( -3.491481338843133355E-15, 1.224646799147353207E-16, -1.000000000000000000 ) ) ;
#22 = ORIENTED_EDGE ( 'NONE', *, *, #67, .F. ) ;
#23 = APPLICATION_PROTOCOL_DEFINITION ( 'international standard', 'config_control_design', 1994, #160 ) ;
#24 = COORDINATED_UNIVERSAL_TIME_OFFSET ( 1, 0, .AHEAD. ) ;
#25 = CIRCLE ( 'NONE', #159, 0.3499999999999969247 ) ;
#26 = LOCAL_TIME ( 13, 26, 36.00000000000000000, #82 ) ;
#27 = DIRECTION ( 'NONE',  ( -4.275831445896958607E-31, -1.000000000000000000, -1.224646799147353207E-16 ) ) ;
#28 = LOCAL_TIME ( 13, 26, 36.00000000000000000, #85 ) ;
#29 = PERSON_AND_ORGANIZATION_ROLE ( 'creator' ) ;
#30 = CONICAL_SURFACE ( 'NONE', #65, 0.2500000000000000000, 0.7853981633974339571 ) ;
#31 = ORIENTED_EDGE ( 'NONE', *, *, #151, .F. ) ;
#32 = PRODUCT_RELATED_PRODUCT_CATEGORY ( 'detail', '', ( #181 ) ) ;
#33 = DIRECTION ( 'NONE',  ( 0.0000000000000000000, 0.0000000000000000000, 1.000000000000000000 ) ) ;
#34 = DIRECTION ( 'NONE',  ( -3.491481338843133355E-15, 1.224646799147353207E-16, -1.000000000000000000 ) ) ;
#35 = APPROVAL_ROLE ( '' ) ;
#36 = AXIS2_PLACEMENT_3D ( 'NONE', #96, #33, #173 ) ;
#37 = CARTESIAN_POINT ( 'NONE',  ( 1.326762908760390423E-13, -4.653657836759941941E-15, 38.00000000000000000 ) ) ;
#38 = CARTESIAN_POINT ( 'NONE',  ( 4.538925740496073362E-14, -1.592040838891559095E-15, 13.00000000000000000 ) ) ;
#39 = CARTESIAN_POINT ( 'NONE',  ( 0.0000000000000000000, 0.0000000000000000000, 0.0000000000000000000 ) ) ;
#40 = FACE_OUTER_BOUND ( 'NONE', #70, .T. ) ;
#41 = DIRECTION ( 'NONE',  ( 0.0000000000000000000, 1.000000000000000000, 0.0000000000000000000 ) ) ;
#42 = AXIS2_PLACEMENT_3D ( 'NONE', #163, #150, #179 ) ;
#43 = APPROVAL ( #110, 'UNSPECIFIED' ) ;
#44 = CARTESIAN_POINT ( 'NONE',  ( 1.326762908760390423E-13, 0.2499999999999953371, 38.00000000000000000 ) ) ;
#45 = AXIS2_PLACEMENT_3D ( 'NONE', #126, #152, #86 ) ;
#46 = APPROVAL_ROLE ( '' ) ;
#47 = EDGE_LOOP ( 'NONE', ( #141 ) ) ;
#48 = APPROVAL_DATE_TIME ( #80, #43 ) ;
#49 = ORIENTED_EDGE ( 'NONE', *, *, #102, .F. ) ;
#50 = ADVANCED_FACE ( 'NONE', ( #130 ), #4, .T. ) ;
#51 = PERSON_AND_ORGANIZATION_ROLE ( 'classification_officer' ) ;
#52 = PLANE ( 'NONE',  #45 ) ;
#53 = CIRCLE ( 'NONE', #121, 0.3499999999999999778 ) ;
#54 = APPROVAL_STATUS ( 'not_yet_approved' ) ;
#55 = CYLINDRICAL_SURFACE ( 'NONE', #127, 0.3499999999999961475 ) ;
#56 = AXIS2_PLACEMENT_3D ( 'NONE', #185, #108, #120 ) ;
#57 = FACE_OUTER_BOUND ( 'NONE', #91, .T. ) ;
#58 = PLANE ( 'NONE',  #61 ) ;
#59 = VERTEX_POINT ( 'NONE', #180 ) ;
#60 = ADVANCED_FACE ( 'NONE', ( #196 ), #116, .T. ) ;
#61 = AXIS2_PLACEMENT_3D ( 'NONE', #187, #34, #13 ) ;
#62 = PERSON_AND_ORGANIZATION_ROLE ( 'design_supplier' ) ;
#63 = PRODUCT_DEFINITION_SHAPE ( 'NONE', 'NONE',  #168 ) ;
#64 = APPROVAL_DATE_TIME ( #195, #144 ) ;
#65 = AXIS2_PLACEMENT_3D ( 'NONE', #6, #161, #149 ) ;
#66 = MANIFOLD_SOLID_BREP ( 'Corps-Déplacer/Copier1[2]', #125 ) ;
#67 = EDGE_CURVE ( 'NONE', #193, #193, #171, .T. ) ;
#68 = DATE_AND_TIME ( #111, #26 ) ;
#69 = ADVANCED_BREP_SHAPE_REPRESENTATION ( '95', ( #76, #66, #36 ), #134 ) ;
#70 = EDGE_LOOP ( 'NONE', ( #199 ) ) ;
#71 = DIRECTION ( 'NONE',  ( 3.491481338843133355E-15, -1.224646799147353207E-16, 1.000000000000000000 ) ) ;
#72 = CC_DESIGN_PERSON_AND_ORGANIZATION_ASSIGNMENT ( #202, #156, ( #181 ) ) ;
#73 = CARTESIAN_POINT ( 'NONE',  ( 5.698365703127371340E-16, -1.998717633420960036E-17, 0.1632076803542494847 ) ) ;
#74 = PERSON_AND_ORGANIZATION ( #143, #162 ) ;
#75 = CARTESIAN_POINT ( 'NONE',  ( 4.538925740496073362E-14, -1.592040838891559095E-15, 13.00000000000000000 ) ) ;
#76 = MANIFOLD_SOLID_BREP ( 'Corps-Déplacer/Copier1[1]', #172 ) ;
#77 = CC_DESIGN_SECURITY_CLASSIFICATION ( #112, ( #109 ) ) ;
#78 =( NAMED_UNIT ( * ) SI_UNIT ( $, .STERADIAN. ) SOLID_ANGLE_UNIT ( ) );
#79 = ORIENTED_EDGE ( 'NONE', *, *, #102, .T. ) ;
#80 = DATE_AND_TIME ( #169, #114 ) ;
#81 = APPROVAL ( #18, 'UNSPECIFIED' ) ;
#82 = COORDINATED_UNIVERSAL_TIME_OFFSET ( 1, 0, .AHEAD. ) ;
#83 = ADVANCED_FACE ( 'NONE', ( #101, #57 ), #115, .T. ) ;
#84 = CC_DESIGN_APPROVAL ( #81, ( #168 ) ) ;
#85 = COORDINATED_UNIVERSAL_TIME_OFFSET ( 1, 0, .AHEAD. ) ;
#86 = DIRECTION ( 'NONE',  ( -4.275831445896958607E-31, -1.000000000000000000, -1.224646799147353207E-16 ) ) ;
#87 = DIRECTION ( 'NONE',  ( 4.275831445896958607E-31, 1.000000000000000000, 1.224646799147353207E-16 ) ) ;
#88 = CALENDAR_DATE ( 2021, 6, 10 ) ;
#89 = DATE_TIME_ROLE ( 'creation_date' ) ;
#90 = DIRECTION ( 'NONE',  ( -3.491481338843133355E-15, 1.224646799147353207E-16, -1.000000000000000000 ) ) ;
#91 = EDGE_LOOP ( 'NONE', ( #166 ) ) ;
#92 = PERSON_AND_ORGANIZATION_ROLE ( 'creator' ) ;
#93 = CC_DESIGN_APPROVAL ( #144, ( #112 ) ) ;
#94 = CALENDAR_DATE ( 2021, 6, 10 ) ;
#95 = PERSON_AND_ORGANIZATION ( #143, #162 ) ;
#96 = CARTESIAN_POINT ( 'NONE',  ( 0.0000000000000000000, 0.0000000000000000000, 0.0000000000000000000 ) ) ;
#97 = MECHANICAL_CONTEXT ( 'NONE', #160, 'mechanical' ) ;
#98 = EDGE_LOOP ( 'NONE', ( #49 ) ) ;
#99 = DIRECTION ( 'NONE',  ( 3.491481338843133355E-15, -1.224646799147353207E-16, 1.000000000000000000 ) ) ;
#100 = LOCAL_TIME ( 13, 26, 36.00000000000000000, #24 ) ;
#101 = FACE_OUTER_BOUND ( 'NONE', #12, .T. ) ;
#102 = EDGE_CURVE ( 'NONE', #59, #59, #189, .T. ) ;
#103 = VERTEX_POINT ( 'NONE', #8 ) ;
#104 = VERTEX_POINT ( 'NONE', #165 ) ;
#105 = EDGE_CURVE ( 'NONE', #119, #119, #9, .T. ) ;
#106 = COORDINATED_UNIVERSAL_TIME_OFFSET ( 1, 0, .AHEAD. ) ;
#107 = SHAPE_DEFINITION_REPRESENTATION ( #63, #69 ) ;
#108 = DIRECTION ( 'NONE',  ( -3.491481338843133355E-15, 1.224646799147353207E-16, -1.000000000000000000 ) ) ;
#109 = PRODUCT_DEFINITION_FORMATION_WITH_SPECIFIED_SOURCE ( 'ANY', '', #181, .NOT_KNOWN. ) ;
#110 = APPROVAL_STATUS ( 'not_yet_approved' ) ;
#111 = CALENDAR_DATE ( 2021, 6, 10 ) ;
#112 = SECURITY_CLASSIFICATION ( '', '', #123 ) ;
#113 = FACE_BOUND ( 'NONE', #201, .T. ) ;
#114 = LOCAL_TIME ( 13, 26, 36.00000000000000000, #170 ) ;
#115 = CYLINDRICAL_SURFACE ( 'NONE', #42, 0.3499999999999984235 ) ;
#116 = PLANE ( 'NONE',  #19 ) ;
#117 = DIRECTION ( 'NONE',  ( -3.491481338843133355E-15, 1.224646799147353207E-16, -1.000000000000000000 ) ) ;
#118 = CC_DESIGN_PERSON_AND_ORGANIZATION_ASSIGNMENT ( #95, #29, ( #109 ) ) ;
#119 = VERTEX_POINT ( 'NONE', #3 ) ;
#120 = DIRECTION ( 'NONE',  ( 5.502656983963604952E-31, 1.000000000000000000, 1.548860246407884290E-16 ) ) ;
#121 = AXIS2_PLACEMENT_3D ( 'NONE', #7, #90, #197 ) ;
#122 = PERSON_AND_ORGANIZATION ( #143, #162 ) ;
#123 = SECURITY_CLASSIFICATION_LEVEL ( 'unclassified' ) ;
#124 = DIRECTION ( 'NONE',  ( -3.491481338843133355E-15, 1.224646799147353207E-16, -1.000000000000000000 ) ) ;
#125 = CLOSED_SHELL ( 'NONE', ( #50, #164, #60 ) ) ;
#126 = CARTESIAN_POINT ( 'NONE',  ( 4.538925740496073362E-14, 2.624579619658203944E-33, 13.00000000000000000 ) ) ;
#127 = AXIS2_PLACEMENT_3D ( 'NONE', #39, #117, #87 ) ;
#128 = APPROVAL_PERSON_ORGANIZATION ( #157, #81, #35 ) ;
#129 = ADVANCED_FACE ( 'NONE', ( #147 ), #58, .F. ) ;
#130 = FACE_OUTER_BOUND ( 'NONE', #47, .T. ) ;
#131 = FACE_OUTER_BOUND ( 'NONE', #137, .T. ) ;
#132 = DIRECTION ( 'NONE',  ( -3.491481338843133355E-15, 1.224646799147353207E-16, -1.000000000000000000 ) ) ;
#133 = DIRECTION ( 'NONE',  ( -5.502656983963604952E-31, -1.000000000000000000, -1.548860246407884290E-16 ) ) ;
#134 =( GEOMETRIC_REPRESENTATION_CONTEXT ( 3 ) GLOBAL_UNCERTAINTY_ASSIGNED_CONTEXT ( ( #10 ) ) GLOBAL_UNIT_ASSIGNED_CONTEXT ( ( #14, #139, #78 ) ) REPRESENTATION_CONTEXT ( 'NONE', 'WORKASPACE' ) );
#135 = CC_DESIGN_PERSON_AND_ORGANIZATION_ASSIGNMENT ( #140, #51, ( #112 ) ) ;
#136 = DESIGN_CONTEXT ( 'detailed design', #182, 'design' ) ;
#137 = EDGE_LOOP ( 'NONE', ( #79 ) ) ;
#138 = APPROVAL_PERSON_ORGANIZATION ( #203, #144, #174 ) ;
#139 =( NAMED_UNIT ( * ) PLANE_ANGLE_UNIT ( ) SI_UNIT ( $, .RADIAN. ) );
#140 = PERSON_AND_ORGANIZATION ( #143, #162 ) ;
#141 = ORIENTED_EDGE ( 'NONE', *, *, #105, .T. ) ;
#142 = APPLICATION_PROTOCOL_DEFINITION ( 'international standard', 'config_control_design', 1994, #182 ) ;
#143 = PERSON ( 'UNSPECIFIED', 'UNSPECIFIED', 'UNSPECIFIED', ('UNSPECIFIED'), ('UNSPECIFIED'), ('UNSPECIFIED') ) ;
#144 = APPROVAL ( #54, 'UNSPECIFIED' ) ;
#145 = AXIS2_PLACEMENT_3D ( 'NONE', #73, #99, #133 ) ;
#146 = DIRECTION ( 'NONE',  ( 0.0000000000000000000, 1.000000000000000000, 0.0000000000000000000 ) ) ;
#147 = FACE_OUTER_BOUND ( 'NONE', #16, .T. ) ;
#148 = LOCAL_TIME ( 13, 26, 36.00000000000000000, #106 ) ;
#149 = DIRECTION ( 'NONE',  ( 0.0000000000000000000, 1.000000000000000000, 0.0000000000000000000 ) ) ;
#150 = DIRECTION ( 'NONE',  ( -3.491481338843133355E-15, 1.224646799147353207E-16, -1.000000000000000000 ) ) ;
#151 = EDGE_CURVE ( 'NONE', #103, #103, #25, .T. ) ;
#152 = DIRECTION ( 'NONE',  ( 3.491481338843133355E-15, -1.224646799147353207E-16, 1.000000000000000000 ) ) ;
#153 = DIRECTION ( 'NONE',  ( 0.0000000000000000000, 1.000000000000000000, 0.0000000000000000000 ) ) ;
#154 = PERSON_AND_ORGANIZATION ( #143, #162 ) ;
#155 = EDGE_LOOP ( 'NONE', ( #5 ) ) ;
#156 = PERSON_AND_ORGANIZATION_ROLE ( 'design_owner' ) ;
#157 = PERSON_AND_ORGANIZATION ( #143, #162 ) ;
#158 = EDGE_LOOP ( 'NONE', ( #17 ) ) ;
#159 = AXIS2_PLACEMENT_3D ( 'NONE', #75, #21, #146 ) ;
#160 = APPLICATION_CONTEXT ( 'configuration controlled 3d designs of mechanical parts and assemblies' ) ;
#161 = DIRECTION ( 'NONE',  ( -3.491481338843133355E-15, 1.224646799147353207E-16, -1.000000000000000000 ) ) ;
#162 = ORGANIZATION ( 'UNSPECIFIED', 'UNSPECIFIED', '' ) ;
#163 = CARTESIAN_POINT ( 'NONE',  ( 0.0000000000000000000, 0.0000000000000000000, 0.0000000000000000000 ) ) ;
#164 = ADVANCED_FACE ( 'NONE', ( #1, #131 ), #55, .T. ) ;
#165 = CARTESIAN_POINT ( 'NONE',  ( 1.323271427421547605E-13, 0.3499999999999953149, 37.89999999999999858 ) ) ;
#166 = ORIENTED_EDGE ( 'NONE', *, *, #190, .T. ) ;
#167 = DATE_AND_TIME ( #88, #100 ) ;
#168 = PRODUCT_DEFINITION ( 'UNKNOWN', '', #109, #136 ) ;
#169 = CALENDAR_DATE ( 2021, 6, 10 ) ;
#170 = COORDINATED_UNIVERSAL_TIME_OFFSET ( 1, 0, .AHEAD. ) ;
#171 = CIRCLE ( 'NONE', #198, 0.2500000000000000000 ) ;
#172 = CLOSED_SHELL ( 'NONE', ( #2, #83, #20, #129 ) ) ;
#173 = DIRECTION ( 'NONE',  ( 1.000000000000000000, 0.0000000000000000000, 0.0000000000000000000 ) ) ;
#174 = APPROVAL_ROLE ( '' ) ;
#175 = APPROVAL_PERSON_ORGANIZATION ( #74, #43, #46 ) ;
#176 = CARTESIAN_POINT ( 'NONE',  ( 4.538925740496073362E-14, 2.624579619658203944E-33, 13.00000000000000000 ) ) ;
#177 = CC_DESIGN_DATE_AND_TIME_ASSIGNMENT ( #68, #191, ( #112 ) ) ;
#178 = ORIENTED_EDGE ( 'NONE', *, *, #67, .T. ) ;
#179 = DIRECTION ( 'NONE',  ( 4.275831445896958607E-31, 1.000000000000000000, 1.224646799147353207E-16 ) ) ;
#180 = CARTESIAN_POINT ( 'NONE',  ( 4.538925740496073362E-14, 0.3499999999999953149, 13.00000000000000000 ) ) ;
#181 = PRODUCT ( '95', '95', '', ( #97 ) ) ;
#182 = APPLICATION_CONTEXT ( 'configuration controlled 3d designs of mechanical parts and assemblies' ) ;
#183 = AXIS2_PLACEMENT_3D ( 'NONE', #38, #124, #153 ) ;
#184 = CC_DESIGN_PERSON_AND_ORGANIZATION_ASSIGNMENT ( #154, #62, ( #109 ) ) ;
#185 = CARTESIAN_POINT ( 'NONE',  ( 5.698365703127371340E-16, -1.998717633420960036E-17, 0.1632076803542494847 ) ) ;
#186 = APPROVAL_DATE_TIME ( #167, #81 ) ;
#187 = CARTESIAN_POINT ( 'NONE',  ( 1.326762908760390423E-13, 1.874699728327252219E-33, 38.00000000000000000 ) ) ;
#188 = CC_DESIGN_DATE_AND_TIME_ASSIGNMENT ( #15, #89, ( #168 ) ) ;
#189 = CIRCLE ( 'NONE', #183, 0.3499999999999969247 ) ;
#190 = EDGE_CURVE ( 'NONE', #104, #104, #53, .T. ) ;
#191 = DATE_TIME_ROLE ( 'classification_date' ) ;
#192 = CALENDAR_DATE ( 2021, 6, 10 ) ;
#193 = VERTEX_POINT ( 'NONE', #44 ) ;
#194 = FACE_OUTER_BOUND ( 'NONE', #158, .T. ) ;
#195 = DATE_AND_TIME ( #192, #28 ) ;
#196 = FACE_OUTER_BOUND ( 'NONE', #98, .T. ) ;
#197 = DIRECTION ( 'NONE',  ( 0.0000000000000000000, 1.000000000000000000, 0.0000000000000000000 ) ) ;
#198 = AXIS2_PLACEMENT_3D ( 'NONE', #37, #132, #41 ) ;
#199 = ORIENTED_EDGE ( 'NONE', *, *, #190, .F. ) ;
#200 = CC_DESIGN_APPROVAL ( #43, ( #109 ) ) ;
#201 = EDGE_LOOP ( 'NONE', ( #178 ) ) ;
#202 = PERSON_AND_ORGANIZATION ( #143, #162 ) ;
#203 = PERSON_AND_ORGANIZATION ( #143, #162 ) ;
ENDSEC;
END-ISO-10303-21;
