ISO-10303-21;
HEADER;
FILE_DESCRIPTION (( 'STEP AP203' ),
    '1' );
FILE_NAME ('94.step',
    '2021-10-06T11:26:34',
    ( '' ),
    ( '' ),
    'SwSTEP 2.0',
    'SolidWorks 2019',
    '' );
FILE_SCHEMA (( 'CONFIG_CONTROL_DESIGN' ));
ENDSEC;

DATA;
#1 = APPROVAL ( #147, 'UNSPECIFIED' ) ;
#2 = AXIS2_PLACEMENT_3D ( 'NONE', #145, #193, #58 ) ;
#3 = ORIENTED_EDGE ( 'NONE', *, *, #130, .T. ) ;
#4 = APPROVAL_DATE_TIME ( #169, #66 ) ;
#5 = SHAPE_DEFINITION_REPRESENTATION ( #161, #126 ) ;
#6 = CARTESIAN_POINT ( 'NONE',  ( 0.0000000000000000000, 0.0000000000000000000, 0.0000000000000000000 ) ) ;
#7 = CC_DESIGN_PERSON_AND_ORGANIZATION_ASSIGNMENT ( #197, #133, ( #12 ) ) ;
#8 = DIRECTION ( 'NONE',  ( -3.491481338843133355E-15, 1.224646799147353207E-16, -1.000000000000000000 ) ) ;
#9 = CARTESIAN_POINT ( 'NONE',  ( 0.0000000000000000000, 0.0000000000000000000, 0.0000000000000000000 ) ) ;
#10 = DIRECTION ( 'NONE',  ( -3.491481338843133355E-15, 1.224646799147353207E-16, -1.000000000000000000 ) ) ;
#11 = AXIS2_PLACEMENT_3D ( 'NONE', #64, #103, #21 ) ;
#12 = PRODUCT_DEFINITION_FORMATION_WITH_SPECIFIED_SOURCE ( 'ANY', '', #180, .NOT_KNOWN. ) ;
#13 = FACE_OUTER_BOUND ( 'NONE', #173, .T. ) ;
#14 = ADVANCED_FACE ( 'NONE', ( #113 ), #90, .T. ) ;
#15 = MANIFOLD_SOLID_BREP ( 'Corps-Déplacer/Copier1[2]', #191 ) ;
#16 = EDGE_LOOP ( 'NONE', ( #30 ) ) ;
#17 = PERSON_AND_ORGANIZATION ( #167, #179 ) ;
#18 = AXIS2_PLACEMENT_3D ( 'NONE', #51, #186, #41 ) ;
#19 = PERSON_AND_ORGANIZATION ( #167, #179 ) ;
#20 =( GEOMETRIC_REPRESENTATION_CONTEXT ( 3 ) GLOBAL_UNCERTAINTY_ASSIGNED_CONTEXT ( ( #109 ) ) GLOBAL_UNIT_ASSIGNED_CONTEXT ( ( #91, #194, #168 ) ) REPRESENTATION_CONTEXT ( 'NONE', 'WORKASPACE' ) );
#21 = DIRECTION ( 'NONE',  ( 0.0000000000000000000, 1.000000000000000000, 0.0000000000000000000 ) ) ;
#22 = DIRECTION ( 'NONE',  ( -3.491481338843133355E-15, 1.224646799147353207E-16, -1.000000000000000000 ) ) ;
#23 = CYLINDRICAL_SURFACE ( 'NONE', #46, 0.3249999999999984568 ) ;
#24 = COORDINATED_UNIVERSAL_TIME_OFFSET ( 1, 0, .AHEAD. ) ;
#25 = LOCAL_TIME ( 13, 26, 34.00000000000000000, #116 ) ;
#26 = CARTESIAN_POINT ( 'NONE',  ( 4.538925740496073362E-14, 2.437109646825471743E-33, 13.00000000000000000 ) ) ;
#27 = DESIGN_CONTEXT ( 'detailed design', #160, 'design' ) ;
#28 = MECHANICAL_CONTEXT ( 'NONE', #164, 'mechanical' ) ;
#29 = DIRECTION ( 'NONE',  ( -4.275831445896958607E-31, -1.000000000000000000, -1.224646799147353207E-16 ) ) ;
#30 = ORIENTED_EDGE ( 'NONE', *, *, #172, .T. ) ;
#31 = VERTEX_POINT ( 'NONE', #73 ) ;
#32 = APPROVAL_ROLE ( '' ) ;
#33 = LOCAL_TIME ( 13, 26, 34.00000000000000000, #135 ) ;
#34 = DATE_AND_TIME ( #97, #54 ) ;
#35 = DATE_AND_TIME ( #93, #25 ) ;
#36 = CALENDAR_DATE ( 2021, 6, 10 ) ;
#37 = COORDINATED_UNIVERSAL_TIME_OFFSET ( 1, 0, .AHEAD. ) ;
#38 = CC_DESIGN_DATE_AND_TIME_ASSIGNMENT ( #47, #149, ( #44 ) ) ;
#39 = DIRECTION ( 'NONE',  ( -2.962969145211174323E-31, -1.000000000000000000, -8.340016711427076083E-17 ) ) ;
#40 = DIRECTION ( 'NONE',  ( 0.0000000000000000000, 0.0000000000000000000, 1.000000000000000000 ) ) ;
#41 = DIRECTION ( 'NONE',  ( 0.0000000000000000000, 1.000000000000000000, 0.0000000000000000000 ) ) ;
#42 = CC_DESIGN_PERSON_AND_ORGANIZATION_ASSIGNMENT ( #75, #60, ( #12 ) ) ;
#43 = DIRECTION ( 'NONE',  ( 4.275831445896958607E-31, 1.000000000000000000, 1.224646799147353207E-16 ) ) ;
#44 = PRODUCT_DEFINITION ( 'UNKNOWN', '', #12, #27 ) ;
#45 = CARTESIAN_POINT ( 'NONE',  ( 5.291339581475411666E-16, 0.3249999999999953482, 0.1515499889003743827 ) ) ;
#46 = AXIS2_PLACEMENT_3D ( 'NONE', #9, #200, #43 ) ;
#47 = DATE_AND_TIME ( #36, #33 ) ;
#48 = SECURITY_CLASSIFICATION_LEVEL ( 'unclassified' ) ;
#49 = ADVANCED_FACE ( 'NONE', ( #81 ), #162, .T. ) ;
#50 = CC_DESIGN_APPROVAL ( #1, ( #192 ) ) ;
#51 = CARTESIAN_POINT ( 'NONE',  ( 1.326762908760390423E-13, -4.653657836759941941E-15, 38.00000000000000000 ) ) ;
#52 = ADVANCED_FACE ( 'NONE', ( #201, #65 ), #105, .T. ) ;
#53 = CIRCLE ( 'NONE', #188, 0.3250000000000000111 ) ;
#54 = LOCAL_TIME ( 13, 26, 34.00000000000000000, #37 ) ;
#55 = DIRECTION ( 'NONE',  ( -3.491481338843133355E-15, 1.224646799147353207E-16, -1.000000000000000000 ) ) ;
#56 = APPROVAL_DATE_TIME ( #203, #101 ) ;
#57 = EDGE_CURVE ( 'NONE', #122, #122, #152, .T. ) ;
#58 = DIRECTION ( 'NONE',  ( -4.275831445896958607E-31, -1.000000000000000000, -1.224646799147353207E-16 ) ) ;
#59 = CALENDAR_DATE ( 2021, 6, 10 ) ;
#60 = PERSON_AND_ORGANIZATION_ROLE ( 'design_supplier' ) ;
#61 = EDGE_LOOP ( 'NONE', ( #3 ) ) ;
#62 = ADVANCED_FACE ( 'NONE', ( #139, #159 ), #77, .T. ) ;
#63 = ORIENTED_EDGE ( 'NONE', *, *, #57, .F. ) ;
#64 = CARTESIAN_POINT ( 'NONE',  ( 4.538925740496073362E-14, -1.592040838891559095E-15, 13.00000000000000000 ) ) ;
#65 = FACE_OUTER_BOUND ( 'NONE', #61, .T. ) ;
#66 = APPROVAL ( #115, 'UNSPECIFIED' ) ;
#67 = EDGE_LOOP ( 'NONE', ( #198 ) ) ;
#68 = AXIS2_PLACEMENT_3D ( 'NONE', #187, #10, #102 ) ;
#69 = PLANE ( 'NONE',  #131 ) ;
#70 = CC_DESIGN_PERSON_AND_ORGANIZATION_ASSIGNMENT ( #89, #106, ( #180 ) ) ;
#71 = APPROVAL_PERSON_ORGANIZATION ( #132, #66, #154 ) ;
#72 = VERTEX_POINT ( 'NONE', #166 ) ;
#73 = CARTESIAN_POINT ( 'NONE',  ( 4.538925740496073362E-14, 0.3249999999999953482, 13.00000000000000000 ) ) ;
#74 = CIRCLE ( 'NONE', #83, 0.3249999999999953482 ) ;
#75 = PERSON_AND_ORGANIZATION ( #167, #179 ) ;
#76 = EDGE_LOOP ( 'NONE', ( #63 ) ) ;
#77 = CONICAL_SURFACE ( 'NONE', #68, 0.2250000000000000056, 0.7853981633974339571 ) ;
#78 = CC_DESIGN_PERSON_AND_ORGANIZATION_ASSIGNMENT ( #143, #178, ( #44 ) ) ;
#79 = ORIENTED_EDGE ( 'NONE', *, *, #98, .T. ) ;
#80 = CARTESIAN_POINT ( 'NONE',  ( 4.538925740496073362E-14, 0.3249999999999953482, 13.00000000000000000 ) ) ;
#81 = FACE_OUTER_BOUND ( 'NONE', #16, .T. ) ;
#82 = APPROVAL_ROLE ( '' ) ;
#83 = AXIS2_PLACEMENT_3D ( 'NONE', #151, #136, #142 ) ;
#84 = DIRECTION ( 'NONE',  ( 1.000000000000000000, 0.0000000000000000000, 0.0000000000000000000 ) ) ;
#85 = AXIS2_PLACEMENT_3D ( 'NONE', #107, #40, #84 ) ;
#86 = APPROVAL_STATUS ( 'not_yet_approved' ) ;
#87 = CARTESIAN_POINT ( 'NONE',  ( 1.326762908760390423E-13, 1.687229755494520018E-33, 38.00000000000000000 ) ) ;
#88 = FACE_OUTER_BOUND ( 'NONE', #150, .T. ) ;
#89 = PERSON_AND_ORGANIZATION ( #167, #179 ) ;
#90 = PLANE ( 'NONE',  #99 ) ;
#91 =( LENGTH_UNIT ( ) NAMED_UNIT ( * ) SI_UNIT ( .MILLI., .METRE. ) );
#92 = DIRECTION ( 'NONE',  ( 3.491481338843133355E-15, -1.224646799147353207E-16, 1.000000000000000000 ) ) ;
#93 = CALENDAR_DATE ( 2021, 6, 10 ) ;
#94 = LOCAL_TIME ( 13, 26, 34.00000000000000000, #182 ) ;
#95 = APPROVAL_PERSON_ORGANIZATION ( #19, #101, #82 ) ;
#96 = EDGE_LOOP ( 'NONE', ( #185 ) ) ;
#97 = CALENDAR_DATE ( 2021, 6, 10 ) ;
#98 = EDGE_CURVE ( 'NONE', #72, #72, #53, .T. ) ;
#99 = AXIS2_PLACEMENT_3D ( 'NONE', #26, #92, #29 ) ;
#100 = EDGE_LOOP ( 'NONE', ( #196 ) ) ;
#101 = APPROVAL ( #86, 'UNSPECIFIED' ) ;
#102 = DIRECTION ( 'NONE',  ( 0.0000000000000000000, 1.000000000000000000, 0.0000000000000000000 ) ) ;
#103 = DIRECTION ( 'NONE',  ( -3.491481338843133355E-15, 1.224646799147353207E-16, -1.000000000000000000 ) ) ;
#104 = CC_DESIGN_DATE_AND_TIME_ASSIGNMENT ( #34, #171, ( #192 ) ) ;
#105 = CYLINDRICAL_SURFACE ( 'NONE', #153, 0.3249999999999960698 ) ;
#106 = PERSON_AND_ORGANIZATION_ROLE ( 'design_owner' ) ;
#107 = CARTESIAN_POINT ( 'NONE',  ( 0.0000000000000000000, 0.0000000000000000000, 0.0000000000000000000 ) ) ;
#108 = EDGE_LOOP ( 'NONE', ( #118 ) ) ;
#109 = UNCERTAINTY_MEASURE_WITH_UNIT (LENGTH_MEASURE( 1.000000000000000082E-05 ), #91, 'distance_accuracy_value', 'NONE');
#110 = CIRCLE ( 'NONE', #202, 0.3249999999999969025 ) ;
#111 = CIRCLE ( 'NONE', #18, 0.2250000000000000056 ) ;
#112 = CARTESIAN_POINT ( 'NONE',  ( 1.326762908760390423E-13, 0.2249999999999953426, 38.00000000000000000 ) ) ;
#113 = FACE_OUTER_BOUND ( 'NONE', #96, .T. ) ;
#114 = VERTEX_POINT ( 'NONE', #45 ) ;
#115 = APPROVAL_STATUS ( 'not_yet_approved' ) ;
#116 = COORDINATED_UNIVERSAL_TIME_OFFSET ( 1, 0, .AHEAD. ) ;
#117 = CC_DESIGN_APPROVAL ( #66, ( #12 ) ) ;
#118 = ORIENTED_EDGE ( 'NONE', *, *, #146, .T. ) ;
#119 = PERSON_AND_ORGANIZATION ( #167, #179 ) ;
#120 = APPROVAL_DATE_TIME ( #35, #1 ) ;
#121 = AXIS2_PLACEMENT_3D ( 'NONE', #156, #124, #39 ) ;
#122 = VERTEX_POINT ( 'NONE', #80 ) ;
#123 = DIRECTION ( 'NONE',  ( 0.0000000000000000000, 1.000000000000000000, 0.0000000000000000000 ) ) ;
#124 = DIRECTION ( 'NONE',  ( 3.491481338843133355E-15, -1.224646799147353207E-16, 1.000000000000000000 ) ) ;
#125 = DIRECTION ( 'NONE',  ( -3.491481338843133355E-15, 1.224646799147353207E-16, -1.000000000000000000 ) ) ;
#126 = ADVANCED_BREP_SHAPE_REPRESENTATION ( '94', ( #158, #15, #85 ), #20 ) ;
#127 = LOCAL_TIME ( 13, 26, 34.00000000000000000, #24 ) ;
#128 = DIRECTION ( 'NONE',  ( 4.275831445896958607E-31, 1.000000000000000000, 1.224646799147353207E-16 ) ) ;
#129 = PLANE ( 'NONE',  #2 ) ;
#130 = EDGE_CURVE ( 'NONE', #31, #31, #110, .T. ) ;
#131 = AXIS2_PLACEMENT_3D ( 'NONE', #87, #55, #128 ) ;
#132 = PERSON_AND_ORGANIZATION ( #167, #179 ) ;
#133 = PERSON_AND_ORGANIZATION_ROLE ( 'creator' ) ;
#134 = CLOSED_SHELL ( 'NONE', ( #190, #155, #62, #165 ) ) ;
#135 = COORDINATED_UNIVERSAL_TIME_OFFSET ( 1, 0, .AHEAD. ) ;
#136 = DIRECTION ( 'NONE',  ( -3.491481338843133355E-15, 1.224646799147353207E-16, -1.000000000000000000 ) ) ;
#137 = ORIENTED_EDGE ( 'NONE', *, *, #57, .T. ) ;
#138 = PRODUCT_RELATED_PRODUCT_CATEGORY ( 'detail', '', ( #180 ) ) ;
#139 = FACE_OUTER_BOUND ( 'NONE', #100, .T. ) ;
#140 = CARTESIAN_POINT ( 'NONE',  ( 4.538925740496073362E-14, -1.592040838891559095E-15, 13.00000000000000000 ) ) ;
#141 = CALENDAR_DATE ( 2021, 6, 10 ) ;
#142 = DIRECTION ( 'NONE',  ( 2.962969145211174323E-31, 1.000000000000000000, 8.340016711427076083E-17 ) ) ;
#143 = PERSON_AND_ORGANIZATION ( #167, #179 ) ;
#144 = CC_DESIGN_PERSON_AND_ORGANIZATION_ASSIGNMENT ( #119, #181, ( #192 ) ) ;
#145 = CARTESIAN_POINT ( 'NONE',  ( 4.538925740496073362E-14, 2.437109646825471743E-33, 13.00000000000000000 ) ) ;
#146 = EDGE_CURVE ( 'NONE', #163, #163, #111, .T. ) ;
#147 = APPROVAL_STATUS ( 'not_yet_approved' ) ;
#148 = CC_DESIGN_SECURITY_CLASSIFICATION ( #192, ( #12 ) ) ;
#149 = DATE_TIME_ROLE ( 'creation_date' ) ;
#150 = EDGE_LOOP ( 'NONE', ( #137 ) ) ;
#151 = CARTESIAN_POINT ( 'NONE',  ( 5.291339581475410680E-16, -1.855952088176603701E-17, 0.1515499889003743550 ) ) ;
#152 = CIRCLE ( 'NONE', #11, 0.3249999999999969025 ) ;
#153 = AXIS2_PLACEMENT_3D ( 'NONE', #6, #22, #177 ) ;
#154 = APPROVAL_ROLE ( '' ) ;
#155 = ADVANCED_FACE ( 'NONE', ( #175, #189 ), #23, .T. ) ;
#156 = CARTESIAN_POINT ( 'NONE',  ( 5.291339581475410680E-16, -1.855952088176603701E-17, 0.1515499889003743550 ) ) ;
#157 = CARTESIAN_POINT ( 'NONE',  ( 1.323271427421547605E-13, -4.641411368768468584E-15, 37.89999999999999858 ) ) ;
#158 = MANIFOLD_SOLID_BREP ( 'Corps-Déplacer/Copier1[1]', #134 ) ;
#159 = FACE_BOUND ( 'NONE', #108, .T. ) ;
#160 = APPLICATION_CONTEXT ( 'configuration controlled 3d designs of mechanical parts and assemblies' ) ;
#161 = PRODUCT_DEFINITION_SHAPE ( 'NONE', 'NONE',  #44 ) ;
#162 = CONICAL_SURFACE ( 'NONE', #121, 0.3249999999999953482, 1.134464013796309123 ) ;
#163 = VERTEX_POINT ( 'NONE', #112 ) ;
#164 = APPLICATION_CONTEXT ( 'configuration controlled 3d designs of mechanical parts and assemblies' ) ;
#165 = ADVANCED_FACE ( 'NONE', ( #13 ), #69, .F. ) ;
#166 = CARTESIAN_POINT ( 'NONE',  ( 1.323271427421547605E-13, 0.3249999999999953482, 37.89999999999999858 ) ) ;
#167 = PERSON ( 'UNSPECIFIED', 'UNSPECIFIED', 'UNSPECIFIED', ('UNSPECIFIED'), ('UNSPECIFIED'), ('UNSPECIFIED') ) ;
#168 =( NAMED_UNIT ( * ) SI_UNIT ( $, .STERADIAN. ) SOLID_ANGLE_UNIT ( ) );
#169 = DATE_AND_TIME ( #59, #94 ) ;
#170 = EDGE_LOOP ( 'NONE', ( #79 ) ) ;
#171 = DATE_TIME_ROLE ( 'classification_date' ) ;
#172 = EDGE_CURVE ( 'NONE', #114, #114, #74, .T. ) ;
#173 = EDGE_LOOP ( 'NONE', ( #176 ) ) ;
#174 = APPLICATION_PROTOCOL_DEFINITION ( 'international standard', 'config_control_design', 1994, #160 ) ;
#175 = FACE_OUTER_BOUND ( 'NONE', #76, .T. ) ;
#176 = ORIENTED_EDGE ( 'NONE', *, *, #146, .F. ) ;
#177 = DIRECTION ( 'NONE',  ( 4.275831445896958607E-31, 1.000000000000000000, 1.224646799147353454E-16 ) ) ;
#178 = PERSON_AND_ORGANIZATION_ROLE ( 'creator' ) ;
#179 = ORGANIZATION ( 'UNSPECIFIED', 'UNSPECIFIED', '' ) ;
#180 = PRODUCT ( '94', '94', '', ( #28 ) ) ;
#181 = PERSON_AND_ORGANIZATION_ROLE ( 'classification_officer' ) ;
#182 = COORDINATED_UNIVERSAL_TIME_OFFSET ( 1, 0, .AHEAD. ) ;
#183 = APPROVAL_PERSON_ORGANIZATION ( #17, #1, #32 ) ;
#184 = CC_DESIGN_APPROVAL ( #101, ( #44 ) ) ;
#185 = ORIENTED_EDGE ( 'NONE', *, *, #130, .F. ) ;
#186 = DIRECTION ( 'NONE',  ( -3.491481338843133355E-15, 1.224646799147353207E-16, -1.000000000000000000 ) ) ;
#187 = CARTESIAN_POINT ( 'NONE',  ( 1.326762908760390423E-13, -4.653657836759941941E-15, 38.00000000000000000 ) ) ;
#188 = AXIS2_PLACEMENT_3D ( 'NONE', #157, #8, #199 ) ;
#189 = FACE_OUTER_BOUND ( 'NONE', #170, .T. ) ;
#190 = ADVANCED_FACE ( 'NONE', ( #88 ), #129, .F. ) ;
#191 = CLOSED_SHELL ( 'NONE', ( #49, #52, #14 ) ) ;
#192 = SECURITY_CLASSIFICATION ( '', '', #48 ) ;
#193 = DIRECTION ( 'NONE',  ( 3.491481338843133355E-15, -1.224646799147353207E-16, 1.000000000000000000 ) ) ;
#194 =( NAMED_UNIT ( * ) PLANE_ANGLE_UNIT ( ) SI_UNIT ( $, .RADIAN. ) );
#195 = APPLICATION_PROTOCOL_DEFINITION ( 'international standard', 'config_control_design', 1994, #164 ) ;
#196 = ORIENTED_EDGE ( 'NONE', *, *, #98, .F. ) ;
#197 = PERSON_AND_ORGANIZATION ( #167, #179 ) ;
#198 = ORIENTED_EDGE ( 'NONE', *, *, #172, .F. ) ;
#199 = DIRECTION ( 'NONE',  ( 0.0000000000000000000, 1.000000000000000000, 0.0000000000000000000 ) ) ;
#200 = DIRECTION ( 'NONE',  ( -3.491481338843133355E-15, 1.224646799147353207E-16, -1.000000000000000000 ) ) ;
#201 = FACE_OUTER_BOUND ( 'NONE', #67, .T. ) ;
#202 = AXIS2_PLACEMENT_3D ( 'NONE', #140, #125, #123 ) ;
#203 = DATE_AND_TIME ( #141, #127 ) ;
ENDSEC;
END-ISO-10303-21;
