ISO-10303-21;
HEADER;
FILE_DESCRIPTION (( 'STEP AP203' ),
    '1' );
FILE_NAME ('93.step',
    '2021-10-06T11:26:32',
    ( '' ),
    ( '' ),
    'SwSTEP 2.0',
    'SolidWorks 2019',
    '' );
FILE_SCHEMA (( 'CONFIG_CONTROL_DESIGN' ));
ENDSEC;

DATA;
#1 = CIRCLE ( 'NONE', #39, 0.2999999999999999889 ) ;
#2 = APPROVAL_PERSON_ORGANIZATION ( #150, #51, #11 ) ;
#3 = CARTESIAN_POINT ( 'NONE',  ( 1.326762908760390423E-13, -4.653657836759941941E-15, 38.00000000000000000 ) ) ;
#4 = DATE_TIME_ROLE ( 'classification_date' ) ;
#5 = VERTEX_POINT ( 'NONE', #199 ) ;
#6 = EDGE_LOOP ( 'NONE', ( #89 ) ) ;
#7 = DIRECTION ( 'NONE',  ( -3.491481338843133355E-15, 1.224646799147353207E-16, -1.000000000000000000 ) ) ;
#8 = DIRECTION ( 'NONE',  ( 0.0000000000000000000, 0.0000000000000000000, 1.000000000000000000 ) ) ;
#9 = DIRECTION ( 'NONE',  ( 0.0000000000000000000, 1.000000000000000000, 0.0000000000000000000 ) ) ;
#10 = CC_DESIGN_PERSON_AND_ORGANIZATION_ASSIGNMENT ( #118, #184, ( #20 ) ) ;
#11 = APPROVAL_ROLE ( '' ) ;
#12 = DIRECTION ( 'NONE',  ( -4.275831445896958607E-31, -1.000000000000000000, -1.224646799147353207E-16 ) ) ;
#13 = APPLICATION_PROTOCOL_DEFINITION ( 'international standard', 'config_control_design', 1994, #179 ) ;
#14 = ORIENTED_EDGE ( 'NONE', *, *, #18, .T. ) ;
#15 = COORDINATED_UNIVERSAL_TIME_OFFSET ( 1, 0, .AHEAD. ) ;
#16 = PERSON_AND_ORGANIZATION ( #123, #113 ) ;
#17 = AXIS2_PLACEMENT_3D ( 'NONE', #3, #35, #34 ) ;
#18 = EDGE_CURVE ( 'NONE', #75, #75, #161, .T. ) ;
#19 = DIRECTION ( 'NONE',  ( -3.491481338843133355E-15, 1.224646799147353207E-16, -1.000000000000000000 ) ) ;
#20 = PRODUCT ( '93', '93', '', ( #28 ) ) ;
#21 = DIRECTION ( 'NONE',  ( -4.275831445896958607E-31, -1.000000000000000000, -1.224646799147353207E-16 ) ) ;
#22 = PLANE ( 'NONE',  #78 ) ;
#23 = CARTESIAN_POINT ( 'NONE',  ( 1.326762908760390423E-13, 1.499759782661787646E-33, 38.00000000000000000 ) ) ;
#24 = CARTESIAN_POINT ( 'NONE',  ( 1.326762908760390423E-13, -4.653657836759941941E-15, 38.00000000000000000 ) ) ;
#25 = EDGE_LOOP ( 'NONE', ( #91 ) ) ;
#26 = CARTESIAN_POINT ( 'NONE',  ( 4.538925740496073362E-14, -1.592040838891559095E-15, 13.00000000000000000 ) ) ;
#27 = CALENDAR_DATE ( 2021, 6, 10 ) ;
#28 = MECHANICAL_CONTEXT ( 'NONE', #54, 'mechanical' ) ;
#29 = APPROVAL_DATE_TIME ( #40, #99 ) ;
#30 = PERSON_AND_ORGANIZATION ( #123, #113 ) ;
#31 = PRODUCT_DEFINITION_SHAPE ( 'NONE', 'NONE',  #134 ) ;
#32 = ADVANCED_FACE ( 'NONE', ( #93, #56 ), #151, .T. ) ;
#33 = CARTESIAN_POINT ( 'NONE',  ( 4.884313459823450020E-16, -1.713186542932247366E-17, 0.1398922974464992253 ) ) ;
#34 = DIRECTION ( 'NONE',  ( 0.0000000000000000000, 1.000000000000000000, 0.0000000000000000000 ) ) ;
#35 = DIRECTION ( 'NONE',  ( -3.491481338843133355E-15, 1.224646799147353207E-16, -1.000000000000000000 ) ) ;
#36 = EDGE_LOOP ( 'NONE', ( #159 ) ) ;
#37 = EDGE_CURVE ( 'NONE', #138, #138, #129, .T. ) ;
#38 = EDGE_LOOP ( 'NONE', ( #139 ) ) ;
#39 = AXIS2_PLACEMENT_3D ( 'NONE', #57, #83, #128 ) ;
#40 = DATE_AND_TIME ( #105, #190 ) ;
#41 = DIRECTION ( 'NONE',  ( 3.491481338843133355E-15, -1.224646799147353207E-16, 1.000000000000000000 ) ) ;
#42 = CONICAL_SURFACE ( 'NONE', #180, 0.1999999999999999833, 0.7853981633974339571 ) ;
#43 = FACE_OUTER_BOUND ( 'NONE', #202, .T. ) ;
#44 = DATE_TIME_ROLE ( 'creation_date' ) ;
#45 = APPROVAL_PERSON_ORGANIZATION ( #65, #59, #110 ) ;
#46 = APPROVAL_STATUS ( 'not_yet_approved' ) ;
#47 = COORDINATED_UNIVERSAL_TIME_OFFSET ( 1, 0, .AHEAD. ) ;
#48 = AXIS2_PLACEMENT_3D ( 'NONE', #77, #62, #152 ) ;
#49 = CC_DESIGN_SECURITY_CLASSIFICATION ( #66, ( #94 ) ) ;
#50 = VERTEX_POINT ( 'NONE', #100 ) ;
#51 = APPROVAL ( #169, 'UNSPECIFIED' ) ;
#52 = CIRCLE ( 'NONE', #17, 0.1999999999999999833 ) ;
#53 = CARTESIAN_POINT ( 'NONE',  ( 4.538925740496073362E-14, 2.249639673992739542E-33, 13.00000000000000000 ) ) ;
#54 = APPLICATION_CONTEXT ( 'configuration controlled 3d designs of mechanical parts and assemblies' ) ;
#55 = PERSON_AND_ORGANIZATION ( #123, #113 ) ;
#56 = FACE_OUTER_BOUND ( 'NONE', #116, .T. ) ;
#57 = CARTESIAN_POINT ( 'NONE',  ( 1.323271427421547605E-13, -4.641411368768468584E-15, 37.89999999999999858 ) ) ;
#58 = AXIS2_PLACEMENT_3D ( 'NONE', #165, #122, #21 ) ;
#59 = APPROVAL ( #46, 'UNSPECIFIED' ) ;
#60 = PERSON_AND_ORGANIZATION_ROLE ( 'creator' ) ;
#61 = CC_DESIGN_APPROVAL ( #51, ( #94 ) ) ;
#62 = DIRECTION ( 'NONE',  ( -3.491481338843133355E-15, 1.224646799147353207E-16, -1.000000000000000000 ) ) ;
#63 = SHAPE_DEFINITION_REPRESENTATION ( #31, #168 ) ;
#64 = ADVANCED_FACE ( 'NONE', ( #74, #153 ), #197, .T. ) ;
#65 = PERSON_AND_ORGANIZATION ( #123, #113 ) ;
#66 = SECURITY_CLASSIFICATION ( '', '', #147 ) ;
#67 = EDGE_LOOP ( 'NONE', ( #131 ) ) ;
#68 = EDGE_CURVE ( 'NONE', #166, #166, #1, .T. ) ;
#69 = EDGE_LOOP ( 'NONE', ( #178 ) ) ;
#70 = FACE_OUTER_BOUND ( 'NONE', #69, .T. ) ;
#71 = AXIS2_PLACEMENT_3D ( 'NONE', #137, #19, #119 ) ;
#72 = COORDINATED_UNIVERSAL_TIME_OFFSET ( 1, 0, .AHEAD. ) ;
#73 = MANIFOLD_SOLID_BREP ( 'Corps-Déplacer/Copier1[1]', #157 ) ;
#74 = FACE_OUTER_BOUND ( 'NONE', #98, .T. ) ;
#75 = VERTEX_POINT ( 'NONE', #88 ) ;
#76 = ADVANCED_FACE ( 'NONE', ( #188 ), #120, .T. ) ;
#77 = CARTESIAN_POINT ( 'NONE',  ( 0.0000000000000000000, 0.0000000000000000000, 0.0000000000000000000 ) ) ;
#78 = AXIS2_PLACEMENT_3D ( 'NONE', #53, #92, #12 ) ;
#79 = APPROVAL_DATE_TIME ( #164, #51 ) ;
#80 = ADVANCED_FACE ( 'NONE', ( #43 ), #104, .F. ) ;
#81 = AXIS2_PLACEMENT_3D ( 'NONE', #23, #114, #144 ) ;
#82 = CALENDAR_DATE ( 2021, 6, 10 ) ;
#83 = DIRECTION ( 'NONE',  ( -3.491481338843133355E-15, 1.224646799147353207E-16, -1.000000000000000000 ) ) ;
#84 = LOCAL_TIME ( 13, 26, 32.00000000000000000, #72 ) ;
#85 = PERSON_AND_ORGANIZATION_ROLE ( 'classification_officer' ) ;
#86 = CLOSED_SHELL ( 'NONE', ( #76, #64, #173 ) ) ;
#87 = APPROVAL_PERSON_ORGANIZATION ( #30, #99, #196 ) ;
#88 = CARTESIAN_POINT ( 'NONE',  ( 4.884313459823451006E-16, 0.2999999999999953260, 0.1398922974464992530 ) ) ;
#89 = ORIENTED_EDGE ( 'NONE', *, *, #37, .F. ) ;
#90 = CC_DESIGN_APPROVAL ( #59, ( #66 ) ) ;
#91 = ORIENTED_EDGE ( 'NONE', *, *, #106, .T. ) ;
#92 = DIRECTION ( 'NONE',  ( 3.491481338843133355E-15, -1.224646799147353207E-16, 1.000000000000000000 ) ) ;
#93 = FACE_OUTER_BOUND ( 'NONE', #6, .T. ) ;
#94 = PRODUCT_DEFINITION_FORMATION_WITH_SPECIFIED_SOURCE ( 'ANY', '', #20, .NOT_KNOWN. ) ;
#95 = PERSON_AND_ORGANIZATION ( #123, #113 ) ;
#96 = DIRECTION ( 'NONE',  ( 0.0000000000000000000, 1.000000000000000000, 0.0000000000000000000 ) ) ;
#97 = CC_DESIGN_PERSON_AND_ORGANIZATION_ASSIGNMENT ( #55, #107, ( #134 ) ) ;
#98 = EDGE_LOOP ( 'NONE', ( #162 ) ) ;
#99 = APPROVAL ( #135, 'UNSPECIFIED' ) ;
#100 = CARTESIAN_POINT ( 'NONE',  ( 4.538925740496073362E-14, 0.2999999999999953260, 13.00000000000000000 ) ) ;
#101 = FACE_OUTER_BOUND ( 'NONE', #36, .T. ) ;
#102 = AXIS2_PLACEMENT_3D ( 'NONE', #26, #7, #194 ) ;
#103 = APPLICATION_PROTOCOL_DEFINITION ( 'international standard', 'config_control_design', 1994, #54 ) ;
#104 = PLANE ( 'NONE',  #58 ) ;
#105 = CALENDAR_DATE ( 2021, 6, 10 ) ;
#106 = EDGE_CURVE ( 'NONE', #5, #5, #52, .T. ) ;
#107 = PERSON_AND_ORGANIZATION_ROLE ( 'creator' ) ;
#108 = DIRECTION ( 'NONE',  ( 3.209883240645443156E-31, 1.000000000000000000, 9.035018104046011210E-17 ) ) ;
#109 = DESIGN_CONTEXT ( 'detailed design', #179, 'design' ) ;
#110 = APPROVAL_ROLE ( '' ) ;
#111 = CC_DESIGN_PERSON_AND_ORGANIZATION_ASSIGNMENT ( #95, #60, ( #94 ) ) ;
#112 = CARTESIAN_POINT ( 'NONE',  ( 4.884313459823450020E-16, -1.713186542932247366E-17, 0.1398922974464992253 ) ) ;
#113 = ORGANIZATION ( 'UNSPECIFIED', 'UNSPECIFIED', '' ) ;
#114 = DIRECTION ( 'NONE',  ( -3.491481338843133355E-15, 1.224646799147353207E-16, -1.000000000000000000 ) ) ;
#115 = AXIS2_PLACEMENT_3D ( 'NONE', #112, #41, #182 ) ;
#116 = EDGE_LOOP ( 'NONE', ( #146 ) ) ;
#117 = LOCAL_TIME ( 13, 26, 32.00000000000000000, #47 ) ;
#118 = PERSON_AND_ORGANIZATION ( #123, #113 ) ;
#119 = DIRECTION ( 'NONE',  ( 4.275831445896958607E-31, 1.000000000000000000, 1.224646799147353207E-16 ) ) ;
#120 = CONICAL_SURFACE ( 'NONE', #115, 0.2999999999999953260, 1.134464013796309123 ) ;
#121 = COORDINATED_UNIVERSAL_TIME_OFFSET ( 1, 0, .AHEAD. ) ;
#122 = DIRECTION ( 'NONE',  ( 3.491481338843133355E-15, -1.224646799147353207E-16, 1.000000000000000000 ) ) ;
#123 = PERSON ( 'UNSPECIFIED', 'UNSPECIFIED', 'UNSPECIFIED', ('UNSPECIFIED'), ('UNSPECIFIED'), ('UNSPECIFIED') ) ;
#124 = DIRECTION ( 'NONE',  ( 1.000000000000000000, 0.0000000000000000000, 0.0000000000000000000 ) ) ;
#125 = PERSON_AND_ORGANIZATION_ROLE ( 'design_supplier' ) ;
#126 = CALENDAR_DATE ( 2021, 6, 10 ) ;
#127 =( NAMED_UNIT ( * ) PLANE_ANGLE_UNIT ( ) SI_UNIT ( $, .RADIAN. ) );
#128 = DIRECTION ( 'NONE',  ( 0.0000000000000000000, 1.000000000000000000, 0.0000000000000000000 ) ) ;
#129 = CIRCLE ( 'NONE', #175, 0.2999999999999968803 ) ;
#130 = CC_DESIGN_DATE_AND_TIME_ASSIGNMENT ( #198, #44, ( #134 ) ) ;
#131 = ORIENTED_EDGE ( 'NONE', *, *, #155, .T. ) ;
#132 = PERSON_AND_ORGANIZATION ( #123, #113 ) ;
#133 =( GEOMETRIC_REPRESENTATION_CONTEXT ( 3 ) GLOBAL_UNCERTAINTY_ASSIGNED_CONTEXT ( ( #187 ) ) GLOBAL_UNIT_ASSIGNED_CONTEXT ( ( #174, #127, #192 ) ) REPRESENTATION_CONTEXT ( 'NONE', 'WORKASPACE' ) );
#134 = PRODUCT_DEFINITION ( 'UNKNOWN', '', #94, #109 ) ;
#135 = APPROVAL_STATUS ( 'not_yet_approved' ) ;
#136 = CALENDAR_DATE ( 2021, 6, 10 ) ;
#137 = CARTESIAN_POINT ( 'NONE',  ( 0.0000000000000000000, 0.0000000000000000000, 0.0000000000000000000 ) ) ;
#138 = VERTEX_POINT ( 'NONE', #148 ) ;
#139 = ORIENTED_EDGE ( 'NONE', *, *, #106, .F. ) ;
#140 = EDGE_LOOP ( 'NONE', ( #14 ) ) ;
#141 = MANIFOLD_SOLID_BREP ( 'Corps-Déplacer/Copier1[2]', #86 ) ;
#142 = ADVANCED_FACE ( 'NONE', ( #193 ), #145, .F. ) ;
#143 = AXIS2_PLACEMENT_3D ( 'NONE', #33, #172, #108 ) ;
#144 = DIRECTION ( 'NONE',  ( 4.275831445896958607E-31, 1.000000000000000000, 1.224646799147353207E-16 ) ) ;
#145 = PLANE ( 'NONE',  #81 ) ;
#146 = ORIENTED_EDGE ( 'NONE', *, *, #68, .T. ) ;
#147 = SECURITY_CLASSIFICATION_LEVEL ( 'unclassified' ) ;
#148 = CARTESIAN_POINT ( 'NONE',  ( 4.538925740496073362E-14, 0.2999999999999953260, 13.00000000000000000 ) ) ;
#149 = CARTESIAN_POINT ( 'NONE',  ( 0.0000000000000000000, 0.0000000000000000000, 0.0000000000000000000 ) ) ;
#150 = PERSON_AND_ORGANIZATION ( #123, #113 ) ;
#151 = CYLINDRICAL_SURFACE ( 'NONE', #48, 0.2999999999999983791 ) ;
#152 = DIRECTION ( 'NONE',  ( 4.275831445896958607E-31, 1.000000000000000000, 1.224646799147353207E-16 ) ) ;
#153 = FACE_OUTER_BOUND ( 'NONE', #67, .T. ) ;
#154 = COORDINATED_UNIVERSAL_TIME_OFFSET ( 1, 0, .AHEAD. ) ;
#155 = EDGE_CURVE ( 'NONE', #50, #50, #171, .T. ) ;
#156 = LOCAL_TIME ( 13, 26, 32.00000000000000000, #15 ) ;
#157 = CLOSED_SHELL ( 'NONE', ( #80, #32, #167, #142 ) ) ;
#158 = FACE_BOUND ( 'NONE', #25, .T. ) ;
#159 = ORIENTED_EDGE ( 'NONE', *, *, #68, .F. ) ;
#160 = CARTESIAN_POINT ( 'NONE',  ( 1.323271427421547605E-13, 0.2999999999999953260, 37.89999999999999858 ) ) ;
#161 = CIRCLE ( 'NONE', #143, 0.2999999999999953260 ) ;
#162 = ORIENTED_EDGE ( 'NONE', *, *, #18, .F. ) ;
#163 = DIRECTION ( 'NONE',  ( -3.491481338843133355E-15, 1.224646799147353207E-16, -1.000000000000000000 ) ) ;
#164 = DATE_AND_TIME ( #136, #84 ) ;
#165 = CARTESIAN_POINT ( 'NONE',  ( 4.538925740496073362E-14, 2.249639673992739542E-33, 13.00000000000000000 ) ) ;
#166 = VERTEX_POINT ( 'NONE', #160 ) ;
#167 = ADVANCED_FACE ( 'NONE', ( #101, #158 ), #42, .T. ) ;
#168 = ADVANCED_BREP_SHAPE_REPRESENTATION ( '93', ( #73, #141, #183 ), #133 ) ;
#169 = APPROVAL_STATUS ( 'not_yet_approved' ) ;
#170 = DIRECTION ( 'NONE',  ( -3.491481338843133355E-15, 1.224646799147353207E-16, -1.000000000000000000 ) ) ;
#171 = CIRCLE ( 'NONE', #102, 0.2999999999999968803 ) ;
#172 = DIRECTION ( 'NONE',  ( -3.491481338843133355E-15, 1.224646799147353207E-16, -1.000000000000000000 ) ) ;
#173 = ADVANCED_FACE ( 'NONE', ( #70 ), #22, .T. ) ;
#174 =( LENGTH_UNIT ( ) NAMED_UNIT ( * ) SI_UNIT ( .MILLI., .METRE. ) );
#175 = AXIS2_PLACEMENT_3D ( 'NONE', #181, #170, #96 ) ;
#176 = LOCAL_TIME ( 13, 26, 32.00000000000000000, #154 ) ;
#177 = CC_DESIGN_PERSON_AND_ORGANIZATION_ASSIGNMENT ( #16, #125, ( #94 ) ) ;
#178 = ORIENTED_EDGE ( 'NONE', *, *, #155, .F. ) ;
#179 = APPLICATION_CONTEXT ( 'configuration controlled 3d designs of mechanical parts and assemblies' ) ;
#180 = AXIS2_PLACEMENT_3D ( 'NONE', #24, #163, #9 ) ;
#181 = CARTESIAN_POINT ( 'NONE',  ( 4.538925740496073362E-14, -1.592040838891559095E-15, 13.00000000000000000 ) ) ;
#182 = DIRECTION ( 'NONE',  ( -3.209883240645443156E-31, -1.000000000000000000, -9.035018104046011210E-17 ) ) ;
#183 = AXIS2_PLACEMENT_3D ( 'NONE', #149, #8, #124 ) ;
#184 = PERSON_AND_ORGANIZATION_ROLE ( 'design_owner' ) ;
#185 = ORIENTED_EDGE ( 'NONE', *, *, #37, .T. ) ;
#186 = CC_DESIGN_DATE_AND_TIME_ASSIGNMENT ( #191, #4, ( #66 ) ) ;
#187 = UNCERTAINTY_MEASURE_WITH_UNIT (LENGTH_MEASURE( 1.000000000000000082E-05 ), #174, 'distance_accuracy_value', 'NONE');
#188 = FACE_OUTER_BOUND ( 'NONE', #140, .T. ) ;
#189 = PRODUCT_RELATED_PRODUCT_CATEGORY ( 'detail', '', ( #20 ) ) ;
#190 = LOCAL_TIME ( 13, 26, 32.00000000000000000, #121 ) ;
#191 = DATE_AND_TIME ( #126, #176 ) ;
#192 =( NAMED_UNIT ( * ) SI_UNIT ( $, .STERADIAN. ) SOLID_ANGLE_UNIT ( ) );
#193 = FACE_OUTER_BOUND ( 'NONE', #38, .T. ) ;
#194 = DIRECTION ( 'NONE',  ( 0.0000000000000000000, 1.000000000000000000, 0.0000000000000000000 ) ) ;
#195 = CC_DESIGN_PERSON_AND_ORGANIZATION_ASSIGNMENT ( #132, #85, ( #66 ) ) ;
#196 = APPROVAL_ROLE ( '' ) ;
#197 = CYLINDRICAL_SURFACE ( 'NONE', #71, 0.2999999999999961031 ) ;
#198 = DATE_AND_TIME ( #27, #156 ) ;
#199 = CARTESIAN_POINT ( 'NONE',  ( 1.326762908760390423E-13, 0.1999999999999953204, 38.00000000000000000 ) ) ;
#200 = CC_DESIGN_APPROVAL ( #99, ( #134 ) ) ;
#201 = APPROVAL_DATE_TIME ( #203, #59 ) ;
#202 = EDGE_LOOP ( 'NONE', ( #185 ) ) ;
#203 = DATE_AND_TIME ( #82, #117 ) ;
ENDSEC;
END-ISO-10303-21;
