ISO-10303-21;
HEADER;
FILE_DESCRIPTION (( 'STEP AP203' ),
    '1' );
FILE_NAME ('92.step',
    '2021-10-06T11:26:30',
    ( '' ),
    ( '' ),
    'SwSTEP 2.0',
    'SolidWorks 2019',
    '' );
FILE_SCHEMA (( 'CONFIG_CONTROL_DESIGN' ));
ENDSEC;

DATA;
#1 = CONICAL_SURFACE ( 'NONE', #99, 0.1750000000000000167, 0.7853981633974339571 ) ;
#2 = VERTEX_POINT ( 'NONE', #112 ) ;
#3 = ORIENTED_EDGE ( 'NONE', *, *, #121, .T. ) ;
#4 = AXIS2_PLACEMENT_3D ( 'NONE', #169, #85, #166 ) ;
#5 = CARTESIAN_POINT ( 'NONE',  ( 4.477287338171488374E-16, -1.570420997687891030E-17, 0.1282346059926240955 ) ) ;
#6 = APPROVAL_PERSON_ORGANIZATION ( #146, #193, #196 ) ;
#7 = CALENDAR_DATE ( 2021, 6, 10 ) ;
#8 = DIRECTION ( 'NONE',  ( -3.491481338843133355E-15, 1.224646799147353207E-16, -1.000000000000000000 ) ) ;
#9 = COORDINATED_UNIVERSAL_TIME_OFFSET ( 1, 0, .AHEAD. ) ;
#10 = CARTESIAN_POINT ( 'NONE',  ( 0.0000000000000000000, 0.0000000000000000000, 0.0000000000000000000 ) ) ;
#11 = PERSON_AND_ORGANIZATION_ROLE ( 'design_owner' ) ;
#12 = APPROVAL_PERSON_ORGANIZATION ( #156, #46, #15 ) ;
#13 = APPLICATION_CONTEXT ( 'configuration controlled 3d designs of mechanical parts and assemblies' ) ;
#14 = DIRECTION ( 'NONE',  ( 0.0000000000000000000, 1.000000000000000000, 0.0000000000000000000 ) ) ;
#15 = APPROVAL_ROLE ( '' ) ;
#16 = CARTESIAN_POINT ( 'NONE',  ( 1.326762908760390423E-13, 1.312289809829055787E-33, 38.00000000000000000 ) ) ;
#17 = DIRECTION ( 'NONE',  ( -4.275831445896958607E-31, -1.000000000000000000, -1.224646799147353207E-16 ) ) ;
#18 = FACE_OUTER_BOUND ( 'NONE', #198, .T. ) ;
#19 = DIRECTION ( 'NONE',  ( -3.491481338843133355E-15, 1.224646799147353207E-16, -1.000000000000000000 ) ) ;
#20 = VERTEX_POINT ( 'NONE', #94 ) ;
#21 = COORDINATED_UNIVERSAL_TIME_OFFSET ( 1, 0, .AHEAD. ) ;
#22 = ADVANCED_FACE ( 'NONE', ( #125 ), #139, .F. ) ;
#23 = EDGE_LOOP ( 'NONE', ( #105 ) ) ;
#24 = CC_DESIGN_APPROVAL ( #30, ( #59 ) ) ;
#25 = APPLICATION_CONTEXT ( 'configuration controlled 3d designs of mechanical parts and assemblies' ) ;
#26 = EDGE_LOOP ( 'NONE', ( #171 ) ) ;
#27 = DIRECTION ( 'NONE',  ( 4.275831445896958607E-31, 1.000000000000000000, 1.224646799147352961E-16 ) ) ;
#28 = PERSON_AND_ORGANIZATION ( #84, #145 ) ;
#29 = EDGE_LOOP ( 'NONE', ( #117 ) ) ;
#30 = APPROVAL ( #185, 'UNSPECIFIED' ) ;
#31 = DIRECTION ( 'NONE',  ( 3.491481338843133355E-15, -1.224646799147353207E-16, 1.000000000000000000 ) ) ;
#32 = DIRECTION ( 'NONE',  ( -4.275831445896958607E-31, -1.000000000000000000, -1.224646799147353207E-16 ) ) ;
#33 = PRODUCT_DEFINITION_FORMATION_WITH_SPECIFIED_SOURCE ( 'ANY', '', #55, .NOT_KNOWN. ) ;
#34 = FACE_OUTER_BOUND ( 'NONE', #63, .T. ) ;
#35 = PRODUCT_DEFINITION_SHAPE ( 'NONE', 'NONE',  #59 ) ;
#36 = DIRECTION ( 'NONE',  ( -3.491481338843133355E-15, 1.224646799147353207E-16, -1.000000000000000000 ) ) ;
#37 = CC_DESIGN_PERSON_AND_ORGANIZATION_ASSIGNMENT ( #28, #86, ( #59 ) ) ;
#38 = DIRECTION ( 'NONE',  ( -3.491481338843133355E-15, 1.224646799147353207E-16, -1.000000000000000000 ) ) ;
#39 = CALENDAR_DATE ( 2021, 6, 10 ) ;
#40 = APPROVAL_PERSON_ORGANIZATION ( #200, #30, #100 ) ;
#41 = COORDINATED_UNIVERSAL_TIME_OFFSET ( 1, 0, .AHEAD. ) ;
#42 = ADVANCED_FACE ( 'NONE', ( #155, #74 ), #1, .T. ) ;
#43 = FACE_OUTER_BOUND ( 'NONE', #162, .T. ) ;
#44 = MANIFOLD_SOLID_BREP ( 'Corps-Déplacer/Copier1[1]', #60 ) ;
#45 = CYLINDRICAL_SURFACE ( 'NONE', #61, 0.2749999999999959144 ) ;
#46 = APPROVAL ( #149, 'UNSPECIFIED' ) ;
#47 = CARTESIAN_POINT ( 'NONE',  ( 3.142333204958820020E-14, 2.062169701160011104E-33, 9.000000000000000000 ) ) ;
#48 = CARTESIAN_POINT ( 'NONE',  ( 3.142333204958820020E-14, 2.062169701160011104E-33, 9.000000000000000000 ) ) ;
#49 = AXIS2_PLACEMENT_3D ( 'NONE', #168, #57, #87 ) ;
#50 =( NAMED_UNIT ( * ) SI_UNIT ( $, .STERADIAN. ) SOLID_ANGLE_UNIT ( ) );
#51 = ORIENTED_EDGE ( 'NONE', *, *, #121, .F. ) ;
#52 = APPROVAL_DATE_TIME ( #134, #46 ) ;
#53 = ORIENTED_EDGE ( 'NONE', *, *, #154, .F. ) ;
#54 = APPROVAL_STATUS ( 'not_yet_approved' ) ;
#55 = PRODUCT ( '92', '92', '', ( #187 ) ) ;
#56 = EDGE_CURVE ( 'NONE', #20, #20, #167, .T. ) ;
#57 = DIRECTION ( 'NONE',  ( 0.0000000000000000000, 0.0000000000000000000, 1.000000000000000000 ) ) ;
#58 = FACE_OUTER_BOUND ( 'NONE', #101, .T. ) ;
#59 = PRODUCT_DEFINITION ( 'UNKNOWN', '', #33, #137 ) ;
#60 = CLOSED_SHELL ( 'NONE', ( #22, #129, #42, #176 ) ) ;
#61 = AXIS2_PLACEMENT_3D ( 'NONE', #174, #36, #27 ) ;
#62 = FACE_OUTER_BOUND ( 'NONE', #29, .T. ) ;
#63 = EDGE_LOOP ( 'NONE', ( #53 ) ) ;
#64 = DIRECTION ( 'NONE',  ( 3.491481338843133355E-15, -1.224646799147353207E-16, 1.000000000000000000 ) ) ;
#65 = CIRCLE ( 'NONE', #4, 0.1750000000000000167 ) ;
#66 = DATE_TIME_ROLE ( 'classification_date' ) ;
#67 = EDGE_LOOP ( 'NONE', ( #51 ) ) ;
#68 = DIRECTION ( 'NONE',  ( 4.275831445896958607E-31, 1.000000000000000000, 1.224646799147353207E-16 ) ) ;
#69 = PERSON_AND_ORGANIZATION_ROLE ( 'creator' ) ;
#70 = CALENDAR_DATE ( 2021, 6, 10 ) ;
#71 = FACE_OUTER_BOUND ( 'NONE', #23, .T. ) ;
#72 = PERSON_AND_ORGANIZATION ( #84, #145 ) ;
#73 = DIRECTION ( 'NONE',  ( 3.501690807976851697E-31, 1.000000000000000000, 9.856383386232025227E-17 ) ) ;
#74 = FACE_BOUND ( 'NONE', #143, .T. ) ;
#75 = AXIS2_PLACEMENT_3D ( 'NONE', #88, #114, #186 ) ;
#76 = LOCAL_TIME ( 13, 26, 30.00000000000000000, #173 ) ;
#77 = APPROVAL_DATE_TIME ( #138, #193 ) ;
#78 =( LENGTH_UNIT ( ) NAMED_UNIT ( * ) SI_UNIT ( .MILLI., .METRE. ) );
#79 = CIRCLE ( 'NONE', #127, 0.2750000000000000222 ) ;
#80 = EDGE_LOOP ( 'NONE', ( #157 ) ) ;
#81 = ADVANCED_FACE ( 'NONE', ( #160 ), #148, .T. ) ;
#82 = AXIS2_PLACEMENT_3D ( 'NONE', #10, #38, #68 ) ;
#83 = PERSON_AND_ORGANIZATION ( #84, #145 ) ;
#84 = PERSON ( 'UNSPECIFIED', 'UNSPECIFIED', 'UNSPECIFIED', ('UNSPECIFIED'), ('UNSPECIFIED'), ('UNSPECIFIED') ) ;
#85 = DIRECTION ( 'NONE',  ( -3.491481338843133355E-15, 1.224646799147353207E-16, -1.000000000000000000 ) ) ;
#86 = PERSON_AND_ORGANIZATION_ROLE ( 'creator' ) ;
#87 = DIRECTION ( 'NONE',  ( 1.000000000000000000, 0.0000000000000000000, 0.0000000000000000000 ) ) ;
#88 = CARTESIAN_POINT ( 'NONE',  ( 3.142333204958820020E-14, -1.102182119232617714E-15, 9.000000000000000000 ) ) ;
#89 = DATE_TIME_ROLE ( 'creation_date' ) ;
#90 =( NAMED_UNIT ( * ) PLANE_ANGLE_UNIT ( ) SI_UNIT ( $, .RADIAN. ) );
#91 = CC_DESIGN_DATE_AND_TIME_ASSIGNMENT ( #120, #66, ( #179 ) ) ;
#92 = CARTESIAN_POINT ( 'NONE',  ( 1.323271427421547605E-13, 0.2749999999999953593, 37.89999999999999858 ) ) ;
#93 = EDGE_CURVE ( 'NONE', #203, #203, #97, .T. ) ;
#94 = CARTESIAN_POINT ( 'NONE',  ( 3.142333204958820020E-14, 0.2749999999999953593, 9.000000000000000000 ) ) ;
#95 = AXIS2_PLACEMENT_3D ( 'NONE', #16, #19, #107 ) ;
#96 = CC_DESIGN_PERSON_AND_ORGANIZATION_ASSIGNMENT ( #113, #11, ( #55 ) ) ;
#97 = CIRCLE ( 'NONE', #140, 0.2749999999999953593 ) ;
#98 = DATE_AND_TIME ( #188, #76 ) ;
#99 = AXIS2_PLACEMENT_3D ( 'NONE', #151, #103, #190 ) ;
#100 = APPROVAL_ROLE ( '' ) ;
#101 = EDGE_LOOP ( 'NONE', ( #3 ) ) ;
#102 = ADVANCED_BREP_SHAPE_REPRESENTATION ( '92', ( #44, #181, #49 ), #109 ) ;
#103 = DIRECTION ( 'NONE',  ( -3.491481338843133355E-15, 1.224646799147353207E-16, -1.000000000000000000 ) ) ;
#104 = APPROVAL_DATE_TIME ( #170, #30 ) ;
#105 = ORIENTED_EDGE ( 'NONE', *, *, #142, .F. ) ;
#106 = UNCERTAINTY_MEASURE_WITH_UNIT (LENGTH_MEASURE( 1.000000000000000082E-05 ), #78, 'distance_accuracy_value', 'NONE');
#107 = DIRECTION ( 'NONE',  ( 4.275831445896958607E-31, 1.000000000000000000, 1.224646799147353207E-16 ) ) ;
#108 = VERTEX_POINT ( 'NONE', #92 ) ;
#109 =( GEOMETRIC_REPRESENTATION_CONTEXT ( 3 ) GLOBAL_UNCERTAINTY_ASSIGNED_CONTEXT ( ( #106 ) ) GLOBAL_UNIT_ASSIGNED_CONTEXT ( ( #78, #90, #50 ) ) REPRESENTATION_CONTEXT ( 'NONE', 'WORKASPACE' ) );
#110 = CC_DESIGN_APPROVAL ( #193, ( #179 ) ) ;
#111 = CC_DESIGN_PERSON_AND_ORGANIZATION_ASSIGNMENT ( #128, #118, ( #179 ) ) ;
#112 = CARTESIAN_POINT ( 'NONE',  ( 1.326762908760390423E-13, 0.1749999999999953537, 38.00000000000000000 ) ) ;
#113 = PERSON_AND_ORGANIZATION ( #84, #145 ) ;
#114 = DIRECTION ( 'NONE',  ( -3.491481338843133355E-15, 1.224646799147353207E-16, -1.000000000000000000 ) ) ;
#115 = APPLICATION_PROTOCOL_DEFINITION ( 'international standard', 'config_control_design', 1994, #25 ) ;
#116 = LOCAL_TIME ( 13, 26, 30.00000000000000000, #197 ) ;
#117 = ORIENTED_EDGE ( 'NONE', *, *, #93, .T. ) ;
#118 = PERSON_AND_ORGANIZATION_ROLE ( 'classification_officer' ) ;
#119 = DIRECTION ( 'NONE',  ( -3.491481338843133355E-15, 1.224646799147353207E-16, -1.000000000000000000 ) ) ;
#120 = DATE_AND_TIME ( #7, #116 ) ;
#121 = EDGE_CURVE ( 'NONE', #108, #108, #79, .T. ) ;
#122 = LOCAL_TIME ( 13, 26, 30.00000000000000000, #21 ) ;
#123 = CC_DESIGN_PERSON_AND_ORGANIZATION_ASSIGNMENT ( #83, #131, ( #33 ) ) ;
#124 = AXIS2_PLACEMENT_3D ( 'NONE', #130, #119, #161 ) ;
#125 = FACE_OUTER_BOUND ( 'NONE', #80, .T. ) ;
#126 = ORIENTED_EDGE ( 'NONE', *, *, #154, .T. ) ;
#127 = AXIS2_PLACEMENT_3D ( 'NONE', #136, #8, #14 ) ;
#128 = PERSON_AND_ORGANIZATION ( #84, #145 ) ;
#129 = ADVANCED_FACE ( 'NONE', ( #71, #58 ), #175, .T. ) ;
#130 = CARTESIAN_POINT ( 'NONE',  ( 3.142333204958820020E-14, -1.102182119232617714E-15, 9.000000000000000000 ) ) ;
#131 = PERSON_AND_ORGANIZATION_ROLE ( 'design_supplier' ) ;
#132 = CC_DESIGN_APPROVAL ( #46, ( #33 ) ) ;
#133 = PRODUCT_RELATED_PRODUCT_CATEGORY ( 'detail', '', ( #55 ) ) ;
#134 = DATE_AND_TIME ( #189, #192 ) ;
#135 = SECURITY_CLASSIFICATION_LEVEL ( 'unclassified' ) ;
#136 = CARTESIAN_POINT ( 'NONE',  ( 1.323271427421547605E-13, -4.641411368768468584E-15, 37.89999999999999858 ) ) ;
#137 = DESIGN_CONTEXT ( 'detailed design', #25, 'design' ) ;
#138 = DATE_AND_TIME ( #39, #122 ) ;
#139 = PLANE ( 'NONE',  #191 ) ;
#140 = AXIS2_PLACEMENT_3D ( 'NONE', #172, #201, #73 ) ;
#141 = CC_DESIGN_SECURITY_CLASSIFICATION ( #179, ( #33 ) ) ;
#142 = EDGE_CURVE ( 'NONE', #178, #178, #153, .T. ) ;
#143 = EDGE_LOOP ( 'NONE', ( #126 ) ) ;
#144 = CLOSED_SHELL ( 'NONE', ( #165, #147, #81 ) ) ;
#145 = ORGANIZATION ( 'UNSPECIFIED', 'UNSPECIFIED', '' ) ;
#146 = PERSON_AND_ORGANIZATION ( #84, #145 ) ;
#147 = ADVANCED_FACE ( 'NONE', ( #43, #18 ), #45, .T. ) ;
#148 = PLANE ( 'NONE',  #194 ) ;
#149 = APPROVAL_STATUS ( 'not_yet_approved' ) ;
#150 = ORIENTED_EDGE ( 'NONE', *, *, #93, .F. ) ;
#151 = CARTESIAN_POINT ( 'NONE',  ( 1.326762908760390423E-13, -4.653657836759941941E-15, 38.00000000000000000 ) ) ;
#152 = APPLICATION_PROTOCOL_DEFINITION ( 'international standard', 'config_control_design', 1994, #13 ) ;
#153 = CIRCLE ( 'NONE', #124, 0.2749999999999964140 ) ;
#154 = EDGE_CURVE ( 'NONE', #2, #2, #65, .T. ) ;
#155 = FACE_OUTER_BOUND ( 'NONE', #67, .T. ) ;
#156 = PERSON_AND_ORGANIZATION ( #84, #145 ) ;
#157 = ORIENTED_EDGE ( 'NONE', *, *, #142, .T. ) ;
#158 = PLANE ( 'NONE',  #95 ) ;
#159 = CC_DESIGN_DATE_AND_TIME_ASSIGNMENT ( #98, #89, ( #59 ) ) ;
#160 = FACE_OUTER_BOUND ( 'NONE', #26, .T. ) ;
#161 = DIRECTION ( 'NONE',  ( 0.0000000000000000000, 1.000000000000000000, 0.0000000000000000000 ) ) ;
#162 = EDGE_LOOP ( 'NONE', ( #150 ) ) ;
#163 = SHAPE_DEFINITION_REPRESENTATION ( #35, #102 ) ;
#164 = CARTESIAN_POINT ( 'NONE',  ( 4.477287338171489360E-16, 0.2749999999999953593, 0.1282346059926241233 ) ) ;
#165 = ADVANCED_FACE ( 'NONE', ( #62 ), #184, .T. ) ;
#166 = DIRECTION ( 'NONE',  ( 0.0000000000000000000, 1.000000000000000000, 0.0000000000000000000 ) ) ;
#167 = CIRCLE ( 'NONE', #75, 0.2749999999999964140 ) ;
#168 = CARTESIAN_POINT ( 'NONE',  ( 0.0000000000000000000, 0.0000000000000000000, 0.0000000000000000000 ) ) ;
#169 = CARTESIAN_POINT ( 'NONE',  ( 1.326762908760390423E-13, -4.653657836759941941E-15, 38.00000000000000000 ) ) ;
#170 = DATE_AND_TIME ( #70, #199 ) ;
#171 = ORIENTED_EDGE ( 'NONE', *, *, #56, .F. ) ;
#172 = CARTESIAN_POINT ( 'NONE',  ( 4.477287338171488374E-16, -1.570420997687891030E-17, 0.1282346059926240955 ) ) ;
#173 = COORDINATED_UNIVERSAL_TIME_OFFSET ( 1, 0, .AHEAD. ) ;
#174 = CARTESIAN_POINT ( 'NONE',  ( 0.0000000000000000000, 0.0000000000000000000, 0.0000000000000000000 ) ) ;
#175 = CYLINDRICAL_SURFACE ( 'NONE', #82, 0.2749999999999982458 ) ;
#176 = ADVANCED_FACE ( 'NONE', ( #34 ), #158, .F. ) ;
#177 = AXIS2_PLACEMENT_3D ( 'NONE', #5, #183, #180 ) ;
#178 = VERTEX_POINT ( 'NONE', #195 ) ;
#179 = SECURITY_CLASSIFICATION ( '', '', #135 ) ;
#180 = DIRECTION ( 'NONE',  ( -3.501690807976851697E-31, -1.000000000000000000, -9.856383386232025227E-17 ) ) ;
#181 = MANIFOLD_SOLID_BREP ( 'Corps-Déplacer/Copier1[2]', #144 ) ;
#182 = ORIENTED_EDGE ( 'NONE', *, *, #56, .T. ) ;
#183 = DIRECTION ( 'NONE',  ( 3.491481338843133355E-15, -1.224646799147353207E-16, 1.000000000000000000 ) ) ;
#184 = CONICAL_SURFACE ( 'NONE', #177, 0.2749999999999953593, 1.134464013796309345 ) ;
#185 = APPROVAL_STATUS ( 'not_yet_approved' ) ;
#186 = DIRECTION ( 'NONE',  ( 0.0000000000000000000, 1.000000000000000000, 0.0000000000000000000 ) ) ;
#187 = MECHANICAL_CONTEXT ( 'NONE', #13, 'mechanical' ) ;
#188 = CALENDAR_DATE ( 2021, 6, 10 ) ;
#189 = CALENDAR_DATE ( 2021, 6, 10 ) ;
#190 = DIRECTION ( 'NONE',  ( 0.0000000000000000000, 1.000000000000000000, 0.0000000000000000000 ) ) ;
#191 = AXIS2_PLACEMENT_3D ( 'NONE', #48, #64, #32 ) ;
#192 = LOCAL_TIME ( 13, 26, 30.00000000000000000, #9 ) ;
#193 = APPROVAL ( #54, 'UNSPECIFIED' ) ;
#194 = AXIS2_PLACEMENT_3D ( 'NONE', #47, #31, #17 ) ;
#195 = CARTESIAN_POINT ( 'NONE',  ( 3.142333204958820020E-14, 0.2749999999999953593, 9.000000000000000000 ) ) ;
#196 = APPROVAL_ROLE ( '' ) ;
#197 = COORDINATED_UNIVERSAL_TIME_OFFSET ( 1, 0, .AHEAD. ) ;
#198 = EDGE_LOOP ( 'NONE', ( #182 ) ) ;
#199 = LOCAL_TIME ( 13, 26, 30.00000000000000000, #41 ) ;
#200 = PERSON_AND_ORGANIZATION ( #84, #145 ) ;
#201 = DIRECTION ( 'NONE',  ( -3.491481338843133355E-15, 1.224646799147353207E-16, -1.000000000000000000 ) ) ;
#202 = CC_DESIGN_PERSON_AND_ORGANIZATION_ASSIGNMENT ( #72, #69, ( #33 ) ) ;
#203 = VERTEX_POINT ( 'NONE', #164 ) ;
ENDSEC;
END-ISO-10303-21;
