ISO-10303-21;
HEADER;
FILE_DESCRIPTION (( 'STEP AP203' ),
    '1' );
FILE_NAME ('91.step',
    '2021-10-06T11:26:28',
    ( '' ),
    ( '' ),
    'SwSTEP 2.0',
    'SolidWorks 2019',
    '' );
FILE_SCHEMA (( 'CONFIG_CONTROL_DESIGN' ));
ENDSEC;

DATA;
#1 = SHAPE_DEFINITION_REPRESENTATION ( #35, #20 ) ;
#2 = AXIS2_PLACEMENT_3D ( 'NONE', #151, #172, #187 ) ;
#3 = CC_DESIGN_PERSON_AND_ORGANIZATION_ASSIGNMENT ( #200, #73, ( #30 ) ) ;
#4 = EDGE_CURVE ( 'NONE', #68, #68, #190, .T. ) ;
#5 = DIRECTION ( 'NONE',  ( -4.275831445896958607E-31, -1.000000000000000000, -1.224646799147353207E-16 ) ) ;
#6 = EDGE_LOOP ( 'NONE', ( #45 ) ) ;
#7 = PERSON_AND_ORGANIZATION_ROLE ( 'creator' ) ;
#8 = AXIS2_PLACEMENT_3D ( 'NONE', #97, #148, #81 ) ;
#9 = EDGE_CURVE ( 'NONE', #120, #120, #61, .T. ) ;
#10 = DATE_AND_TIME ( #79, #201 ) ;
#11 =( LENGTH_UNIT ( ) NAMED_UNIT ( * ) SI_UNIT ( .MILLI., .METRE. ) );
#12 = PRODUCT ( '91', '91', '', ( #143 ) ) ;
#13 =( GEOMETRIC_REPRESENTATION_CONTEXT ( 3 ) GLOBAL_UNCERTAINTY_ASSIGNED_CONTEXT ( ( #86 ) ) GLOBAL_UNIT_ASSIGNED_CONTEXT ( ( #11, #41, #106 ) ) REPRESENTATION_CONTEXT ( 'NONE', 'WORKASPACE' ) );
#14 = MANIFOLD_SOLID_BREP ( 'Corps-Déplacer/Copier1[1]', #112 ) ;
#15 = PERSON_AND_ORGANIZATION_ROLE ( 'design_supplier' ) ;
#16 = DESIGN_CONTEXT ( 'detailed design', #125, 'design' ) ;
#17 = FACE_OUTER_BOUND ( 'NONE', #105, .T. ) ;
#18 = CALENDAR_DATE ( 2021, 6, 10 ) ;
#19 = ADVANCED_FACE ( 'NONE', ( #195, #116 ), #64, .T. ) ;
#20 = ADVANCED_BREP_SHAPE_REPRESENTATION ( '91', ( #14, #152, #128 ), #13 ) ;
#21 = CLOSED_SHELL ( 'NONE', ( #129, #132, #188 ) ) ;
#22 = ORIENTED_EDGE ( 'NONE', *, *, #76, .T. ) ;
#23 = PERSON_AND_ORGANIZATION_ROLE ( 'design_owner' ) ;
#24 = DIRECTION ( 'NONE',  ( 1.000000000000000000, 0.0000000000000000000, 0.0000000000000000000 ) ) ;
#25 = CARTESIAN_POINT ( 'NONE',  ( 3.142333204958820020E-14, 1.874699728327274798E-33, 9.000000000000000000 ) ) ;
#26 = APPLICATION_PROTOCOL_DEFINITION ( 'international standard', 'config_control_design', 1994, #125 ) ;
#27 = CC_DESIGN_APPROVAL ( #104, ( #126 ) ) ;
#28 = DIRECTION ( 'NONE',  ( -3.851859888774551843E-31, -1.000000000000000000, -1.084202172485526990E-16 ) ) ;
#29 = DIRECTION ( 'NONE',  ( 0.0000000000000000000, 1.000000000000000000, 0.0000000000000000000 ) ) ;
#30 = PRODUCT_DEFINITION_FORMATION_WITH_SPECIFIED_SOURCE ( 'ANY', '', #12, .NOT_KNOWN. ) ;
#31 = DATE_AND_TIME ( #18, #150 ) ;
#32 = CIRCLE ( 'NONE', #135, 0.1499999999999994116 ) ;
#33 = COORDINATED_UNIVERSAL_TIME_OFFSET ( 1, 0, .AHEAD. ) ;
#34 = CC_DESIGN_PERSON_AND_ORGANIZATION_ASSIGNMENT ( #196, #23, ( #12 ) ) ;
#35 = PRODUCT_DEFINITION_SHAPE ( 'NONE', 'NONE',  #179 ) ;
#36 = CARTESIAN_POINT ( 'NONE',  ( 0.0000000000000000000, 0.0000000000000000000, 0.0000000000000000000 ) ) ;
#37 = PLANE ( 'NONE',  #59 ) ;
#38 = ORIENTED_EDGE ( 'NONE', *, *, #4, .F. ) ;
#39 = DIRECTION ( 'NONE',  ( -3.491481338843133355E-15, 1.224646799147353207E-16, -1.000000000000000000 ) ) ;
#40 = CONICAL_SURFACE ( 'NONE', #42, 0.1499999999999994116, 0.7853981633974689291 ) ;
#41 =( NAMED_UNIT ( * ) PLANE_ANGLE_UNIT ( ) SI_UNIT ( $, .RADIAN. ) );
#42 = AXIS2_PLACEMENT_3D ( 'NONE', #108, #173, #184 ) ;
#43 = APPROVAL_DATE_TIME ( #89, #138 ) ;
#44 = DIRECTION ( 'NONE',  ( 0.0000000000000000000, 1.000000000000000000, 0.0000000000000000000 ) ) ;
#45 = ORIENTED_EDGE ( 'NONE', *, *, #76, .F. ) ;
#46 = EDGE_LOOP ( 'NONE', ( #157 ) ) ;
#47 = ORIENTED_EDGE ( 'NONE', *, *, #95, .T. ) ;
#48 = ADVANCED_FACE ( 'NONE', ( #146 ), #37, .F. ) ;
#49 = LOCAL_TIME ( 13, 26, 28.00000000000000000, #137 ) ;
#50 = PERSON_AND_ORGANIZATION ( #52, #186 ) ;
#51 = CARTESIAN_POINT ( 'NONE',  ( 3.142333204958820020E-14, 0.2499999999999948097, 9.000000000000000000 ) ) ;
#52 = PERSON ( 'UNSPECIFIED', 'UNSPECIFIED', 'UNSPECIFIED', ('UNSPECIFIED'), ('UNSPECIFIED'), ('UNSPECIFIED') ) ;
#53 = DIRECTION ( 'NONE',  ( -3.491481338843133355E-15, 1.224646799147353207E-16, -1.000000000000000000 ) ) ;
#54 = DIRECTION ( 'NONE',  ( 4.275831445896959482E-31, 1.000000000000000000, 1.224646799147353454E-16 ) ) ;
#55 = FACE_OUTER_BOUND ( 'NONE', #170, .T. ) ;
#56 = APPROVAL_PERSON_ORGANIZATION ( #158, #104, #202 ) ;
#57 = PERSON_AND_ORGANIZATION ( #52, #186 ) ;
#58 = VERTEX_POINT ( 'NONE', #51 ) ;
#59 = AXIS2_PLACEMENT_3D ( 'NONE', #25, #181, #5 ) ;
#60 = DIRECTION ( 'NONE',  ( -3.491481338843133355E-15, 1.224646799147353207E-16, -1.000000000000000000 ) ) ;
#61 = CIRCLE ( 'NONE', #163, 0.2499999999999994726 ) ;
#62 = CARTESIAN_POINT ( 'NONE',  ( 0.0000000000000000000, 0.0000000000000000000, 0.0000000000000000000 ) ) ;
#63 = EDGE_LOOP ( 'NONE', ( #69 ) ) ;
#64 = CYLINDRICAL_SURFACE ( 'NONE', #74, 0.2499999999999976685 ) ;
#65 = COORDINATED_UNIVERSAL_TIME_OFFSET ( 1, 0, .AHEAD. ) ;
#66 = CARTESIAN_POINT ( 'NONE',  ( 3.142333204958820020E-14, -1.102182119232617714E-15, 9.000000000000000000 ) ) ;
#67 = CC_DESIGN_PERSON_AND_ORGANIZATION_ASSIGNMENT ( #127, #91, ( #126 ) ) ;
#68 = VERTEX_POINT ( 'NONE', #92 ) ;
#69 = ORIENTED_EDGE ( 'NONE', *, *, #149, .F. ) ;
#70 = CONICAL_SURFACE ( 'NONE', #161, 0.2499999999999948097, 1.134464013796309345 ) ;
#71 = CARTESIAN_POINT ( 'NONE',  ( 3.142333204958820020E-14, -1.102182119232617714E-15, 9.000000000000000000 ) ) ;
#72 = ADVANCED_FACE ( 'NONE', ( #183 ), #130, .F. ) ;
#73 = PERSON_AND_ORGANIZATION_ROLE ( 'creator' ) ;
#74 = AXIS2_PLACEMENT_3D ( 'NONE', #62, #60, #167 ) ;
#75 = VERTEX_POINT ( 'NONE', #159 ) ;
#76 = EDGE_CURVE ( 'NONE', #75, #75, #99, .T. ) ;
#77 = DIRECTION ( 'NONE',  ( 3.851859888774551843E-31, 1.000000000000000000, 1.084202172485526990E-16 ) ) ;
#78 = EDGE_LOOP ( 'NONE', ( #47 ) ) ;
#79 = CALENDAR_DATE ( 2021, 6, 10 ) ;
#80 = EDGE_LOOP ( 'NONE', ( #100 ) ) ;
#81 = DIRECTION ( 'NONE',  ( 4.275831445896958607E-31, 1.000000000000000000, 1.224646799147353207E-16 ) ) ;
#82 = CIRCLE ( 'NONE', #192, 0.2499999999999958922 ) ;
#83 = CYLINDRICAL_SURFACE ( 'NONE', #131, 0.2499999999999953371 ) ;
#84 = APPROVAL_STATUS ( 'not_yet_approved' ) ;
#85 = FACE_OUTER_BOUND ( 'NONE', #6, .T. ) ;
#86 = UNCERTAINTY_MEASURE_WITH_UNIT (LENGTH_MEASURE( 1.000000000000000082E-05 ), #11, 'distance_accuracy_value', 'NONE');
#87 = FACE_OUTER_BOUND ( 'NONE', #80, .T. ) ;
#88 = PRODUCT_RELATED_PRODUCT_CATEGORY ( 'detail', '', ( #12 ) ) ;
#89 = DATE_AND_TIME ( #160, #49 ) ;
#90 = DATE_TIME_ROLE ( 'classification_date' ) ;
#91 = PERSON_AND_ORGANIZATION_ROLE ( 'classification_officer' ) ;
#92 = CARTESIAN_POINT ( 'NONE',  ( 3.142333204958820020E-14, 0.2499999999999948097, 9.000000000000000000 ) ) ;
#93 = DATE_AND_TIME ( #110, #114 ) ;
#94 = PERSON_AND_ORGANIZATION ( #52, #186 ) ;
#95 = EDGE_CURVE ( 'NONE', #203, #203, #32, .T. ) ;
#96 = CC_DESIGN_APPROVAL ( #111, ( #179 ) ) ;
#97 = CARTESIAN_POINT ( 'NONE',  ( 1.326762908760390423E-13, 1.124819836996319138E-33, 38.00000000000000000 ) ) ;
#98 = CC_DESIGN_DATE_AND_TIME_ASSIGNMENT ( #102, #166, ( #179 ) ) ;
#99 = CIRCLE ( 'NONE', #121, 0.2499999999999948097 ) ;
#100 = ORIENTED_EDGE ( 'NONE', *, *, #9, .F. ) ;
#101 = DIRECTION ( 'NONE',  ( 0.0000000000000000000, 1.000000000000000000, 0.0000000000000000000 ) ) ;
#102 = DATE_AND_TIME ( #198, #118 ) ;
#103 = PERSON_AND_ORGANIZATION ( #52, #186 ) ;
#104 = APPROVAL ( #124, 'UNSPECIFIED' ) ;
#105 = EDGE_LOOP ( 'NONE', ( #38 ) ) ;
#106 =( NAMED_UNIT ( * ) SI_UNIT ( $, .STERADIAN. ) SOLID_ANGLE_UNIT ( ) );
#107 = FACE_OUTER_BOUND ( 'NONE', #180, .T. ) ;
#108 = CARTESIAN_POINT ( 'NONE',  ( 1.326762908760390423E-13, -4.653657836759941941E-15, 38.00000000000000000 ) ) ;
#109 = CC_DESIGN_APPROVAL ( #138, ( #30 ) ) ;
#110 = CALENDAR_DATE ( 2021, 6, 10 ) ;
#111 = APPROVAL ( #84, 'UNSPECIFIED' ) ;
#112 = CLOSED_SHELL ( 'NONE', ( #48, #19, #191, #72 ) ) ;
#113 = APPLICATION_CONTEXT ( 'configuration controlled 3d designs of mechanical parts and assemblies' ) ;
#114 = LOCAL_TIME ( 13, 26, 28.00000000000000000, #33 ) ;
#115 = ORIENTED_EDGE ( 'NONE', *, *, #4, .T. ) ;
#116 = FACE_OUTER_BOUND ( 'NONE', #46, .T. ) ;
#117 = CARTESIAN_POINT ( 'NONE',  ( 4.070261216519518840E-16, -1.427655452443531306E-17, 0.1165769145387487021 ) ) ;
#118 = LOCAL_TIME ( 13, 26, 28.00000000000000000, #65 ) ;
#119 = ORIENTED_EDGE ( 'NONE', *, *, #149, .T. ) ;
#120 = VERTEX_POINT ( 'NONE', #185 ) ;
#121 = AXIS2_PLACEMENT_3D ( 'NONE', #117, #39, #77 ) ;
#122 = CARTESIAN_POINT ( 'NONE',  ( 0.0000000000000000000, 0.0000000000000000000, 0.0000000000000000000 ) ) ;
#123 = CC_DESIGN_PERSON_AND_ORGANIZATION_ASSIGNMENT ( #57, #15, ( #30 ) ) ;
#124 = APPROVAL_STATUS ( 'not_yet_approved' ) ;
#125 = APPLICATION_CONTEXT ( 'configuration controlled 3d designs of mechanical parts and assemblies' ) ;
#126 = SECURITY_CLASSIFICATION ( '', '', #189 ) ;
#127 = PERSON_AND_ORGANIZATION ( #52, #186 ) ;
#128 = AXIS2_PLACEMENT_3D ( 'NONE', #36, #193, #24 ) ;
#129 = ADVANCED_FACE ( 'NONE', ( #107 ), #70, .T. ) ;
#130 = PLANE ( 'NONE',  #8 ) ;
#131 = AXIS2_PLACEMENT_3D ( 'NONE', #122, #171, #54 ) ;
#132 = ADVANCED_FACE ( 'NONE', ( #85, #55 ), #83, .T. ) ;
#133 = CARTESIAN_POINT ( 'NONE',  ( 1.326762908760390423E-13, 0.1499999999999947486, 38.00000000000000000 ) ) ;
#134 = DIRECTION ( 'NONE',  ( 3.491481338843133355E-15, -1.224646799147353207E-16, 1.000000000000000000 ) ) ;
#135 = AXIS2_PLACEMENT_3D ( 'NONE', #144, #182, #101 ) ;
#136 = PLANE ( 'NONE',  #2 ) ;
#137 = COORDINATED_UNIVERSAL_TIME_OFFSET ( 1, 0, .AHEAD. ) ;
#138 = APPROVAL ( #178, 'UNSPECIFIED' ) ;
#139 = CC_DESIGN_SECURITY_CLASSIFICATION ( #126, ( #30 ) ) ;
#140 = DIRECTION ( 'NONE',  ( -3.491481338843133355E-15, 1.224646799147353207E-16, -1.000000000000000000 ) ) ;
#141 = DIRECTION ( 'NONE',  ( 0.0000000000000000000, 1.000000000000000000, 0.0000000000000000000 ) ) ;
#142 = APPROVAL_DATE_TIME ( #93, #104 ) ;
#143 = MECHANICAL_CONTEXT ( 'NONE', #113, 'mechanical' ) ;
#144 = CARTESIAN_POINT ( 'NONE',  ( 1.326762908760390423E-13, -4.653657836759941941E-15, 38.00000000000000000 ) ) ;
#145 = APPLICATION_PROTOCOL_DEFINITION ( 'international standard', 'config_control_design', 1994, #113 ) ;
#146 = FACE_OUTER_BOUND ( 'NONE', #153, .T. ) ;
#147 = APPROVAL_DATE_TIME ( #10, #111 ) ;
#148 = DIRECTION ( 'NONE',  ( -3.491481338843133355E-15, 1.224646799147353207E-16, -1.000000000000000000 ) ) ;
#149 = EDGE_CURVE ( 'NONE', #58, #58, #82, .T. ) ;
#150 = LOCAL_TIME ( 13, 26, 28.00000000000000000, #175 ) ;
#151 = CARTESIAN_POINT ( 'NONE',  ( 3.142333204958820020E-14, 1.874699728327274798E-33, 9.000000000000000000 ) ) ;
#152 = MANIFOLD_SOLID_BREP ( 'Corps-Déplacer/Copier1[2]', #21 ) ;
#153 = EDGE_LOOP ( 'NONE', ( #119 ) ) ;
#154 = DIRECTION ( 'NONE',  ( -3.491481338843133355E-15, 1.224646799147353207E-16, -1.000000000000000000 ) ) ;
#155 = FACE_BOUND ( 'NONE', #78, .T. ) ;
#156 = ORIENTED_EDGE ( 'NONE', *, *, #95, .F. ) ;
#157 = ORIENTED_EDGE ( 'NONE', *, *, #9, .T. ) ;
#158 = PERSON_AND_ORGANIZATION ( #52, #186 ) ;
#159 = CARTESIAN_POINT ( 'NONE',  ( 4.070261216519519826E-16, 0.2499999999999948097, 0.1165769145387487299 ) ) ;
#160 = CALENDAR_DATE ( 2021, 6, 10 ) ;
#161 = AXIS2_PLACEMENT_3D ( 'NONE', #168, #134, #28 ) ;
#162 = EDGE_LOOP ( 'NONE', ( #156 ) ) ;
#163 = AXIS2_PLACEMENT_3D ( 'NONE', #197, #140, #44 ) ;
#164 = APPROVAL_ROLE ( '' ) ;
#165 = CC_DESIGN_PERSON_AND_ORGANIZATION_ASSIGNMENT ( #103, #7, ( #179 ) ) ;
#166 = DATE_TIME_ROLE ( 'creation_date' ) ;
#167 = DIRECTION ( 'NONE',  ( 4.275831445896958607E-31, 1.000000000000000000, 1.224646799147353207E-16 ) ) ;
#168 = CARTESIAN_POINT ( 'NONE',  ( 4.070261216519518840E-16, -1.427655452443531306E-17, 0.1165769145387487021 ) ) ;
#169 = COORDINATED_UNIVERSAL_TIME_OFFSET ( 1, 0, .AHEAD. ) ;
#170 = EDGE_LOOP ( 'NONE', ( #115 ) ) ;
#171 = DIRECTION ( 'NONE',  ( -3.491481338843133355E-15, 1.224646799147353207E-16, -1.000000000000000000 ) ) ;
#172 = DIRECTION ( 'NONE',  ( 3.491481338843133355E-15, -1.224646799147353207E-16, 1.000000000000000000 ) ) ;
#173 = DIRECTION ( 'NONE',  ( -3.491481338843133355E-15, 1.224646799147353207E-16, -1.000000000000000000 ) ) ;
#174 = AXIS2_PLACEMENT_3D ( 'NONE', #66, #53, #29 ) ;
#175 = COORDINATED_UNIVERSAL_TIME_OFFSET ( 1, 0, .AHEAD. ) ;
#176 = APPROVAL_PERSON_ORGANIZATION ( #94, #138, #177 ) ;
#177 = APPROVAL_ROLE ( '' ) ;
#178 = APPROVAL_STATUS ( 'not_yet_approved' ) ;
#179 = PRODUCT_DEFINITION ( 'UNKNOWN', '', #30, #16 ) ;
#180 = EDGE_LOOP ( 'NONE', ( #22 ) ) ;
#181 = DIRECTION ( 'NONE',  ( 3.491481338843133355E-15, -1.224646799147353207E-16, 1.000000000000000000 ) ) ;
#182 = DIRECTION ( 'NONE',  ( -3.491481338843133355E-15, 1.224646799147353207E-16, -1.000000000000000000 ) ) ;
#183 = FACE_OUTER_BOUND ( 'NONE', #162, .T. ) ;
#184 = DIRECTION ( 'NONE',  ( 0.0000000000000000000, 1.000000000000000000, 0.0000000000000000000 ) ) ;
#185 = CARTESIAN_POINT ( 'NONE',  ( 1.323271427421547605E-13, 0.2499999999999948097, 37.90000000000000568 ) ) ;
#186 = ORGANIZATION ( 'UNSPECIFIED', 'UNSPECIFIED', '' ) ;
#187 = DIRECTION ( 'NONE',  ( -4.275831445896958607E-31, -1.000000000000000000, -1.224646799147353207E-16 ) ) ;
#188 = ADVANCED_FACE ( 'NONE', ( #17 ), #136, .T. ) ;
#189 = SECURITY_CLASSIFICATION_LEVEL ( 'unclassified' ) ;
#190 = CIRCLE ( 'NONE', #174, 0.2499999999999958922 ) ;
#191 = ADVANCED_FACE ( 'NONE', ( #87, #155 ), #40, .T. ) ;
#192 = AXIS2_PLACEMENT_3D ( 'NONE', #71, #154, #141 ) ;
#193 = DIRECTION ( 'NONE',  ( 0.0000000000000000000, 0.0000000000000000000, 1.000000000000000000 ) ) ;
#194 = APPROVAL_PERSON_ORGANIZATION ( #50, #111, #164 ) ;
#195 = FACE_OUTER_BOUND ( 'NONE', #63, .T. ) ;
#196 = PERSON_AND_ORGANIZATION ( #52, #186 ) ;
#197 = CARTESIAN_POINT ( 'NONE',  ( 1.323271427421547605E-13, -4.641411368768469373E-15, 37.90000000000000568 ) ) ;
#198 = CALENDAR_DATE ( 2021, 6, 10 ) ;
#199 = CC_DESIGN_DATE_AND_TIME_ASSIGNMENT ( #31, #90, ( #126 ) ) ;
#200 = PERSON_AND_ORGANIZATION ( #52, #186 ) ;
#201 = LOCAL_TIME ( 13, 26, 28.00000000000000000, #169 ) ;
#202 = APPROVAL_ROLE ( '' ) ;
#203 = VERTEX_POINT ( 'NONE', #133 ) ;
ENDSEC;
END-ISO-10303-21;
