ISO-10303-21;
HEADER;
FILE_DESCRIPTION (( 'STEP AP203' ),
    '1' );
FILE_NAME ('8646.step',
    '2021-09-03T07:22:48',
    ( '' ),
    ( '' ),
    'SwSTEP 2.0',
    'SolidWorks 2019',
    '' );
FILE_SCHEMA (( 'CONFIG_CONTROL_DESIGN' ));
ENDSEC;

DATA;
#1 = DIRECTION ( 'NONE',  ( -3.491481338843133355E-15, 1.224646799147353207E-16, -1.000000000000000000 ) ) ;
#2 = CIRCLE ( 'NONE', #231, 3.549999999999987388 ) ;
#3 = AXIS2_PLACEMENT_3D ( 'NONE', #174, #50, #250 ) ;
#4 = CARTESIAN_POINT ( 'NONE',  ( 8.728703347107833388E-14, -3.061616997868383043E-15, 25.00000000000000000 ) ) ;
#5 = ORIENTED_EDGE ( 'NONE', *, *, #314, .T. ) ;
#6 = DIRECTION ( 'NONE',  ( 0.0000000000000000000, 1.000000000000000000, 0.0000000000000000000 ) ) ;
#7 = DATE_AND_TIME ( #133, #270 ) ;
#8 = CIRCLE ( 'NONE', #51, 3.549999999999987388 ) ;
#9 = AXIS2_PLACEMENT_3D ( 'NONE', #28, #260, #134 ) ;
#10 = APPROVAL_ROLE ( '' ) ;
#11 = DIRECTION ( 'NONE',  ( 0.0000000000000000000, 1.000000000000000000, 0.0000000000000000000 ) ) ;
#12 = VECTOR ( 'NONE', #324, 1000.000000000000000 ) ;
#13 = ORIENTED_EDGE ( 'NONE', *, *, #329, .T. ) ;
#14 = VERTEX_POINT ( 'NONE', #39 ) ;
#15 = DIRECTION ( 'NONE',  ( 3.491481338843133355E-15, -1.224646799147353207E-16, 1.000000000000000000 ) ) ;
#16 = CARTESIAN_POINT ( 'NONE',  ( 8.728703347107833388E-14, 2.662073614224783296E-32, 25.00000000000000000 ) ) ;
#17 = EDGE_CURVE ( 'NONE', #275, #70, #2, .T. ) ;
#18 = CIRCLE ( 'NONE', #236, 3.549999999999984723 ) ;
#19 =( GEOMETRIC_REPRESENTATION_CONTEXT ( 3 ) GLOBAL_UNCERTAINTY_ASSIGNED_CONTEXT ( ( #323 ) ) GLOBAL_UNIT_ASSIGNED_CONTEXT ( ( #312, #85, #286 ) ) REPRESENTATION_CONTEXT ( 'NONE', 'WORKASPACE' ) );
#20 = DIRECTION ( 'NONE',  ( 3.491481338843133355E-15, -1.224646799147353207E-16, 1.000000000000000000 ) ) ;
#21 = CARTESIAN_POINT ( 'NONE',  ( 7.447522416960680188E-15, -2.612239220081602794E-16, 2.133055197547852444 ) ) ;
#22 = EDGE_CURVE ( 'NONE', #292, #209, #65, .T. ) ;
#23 = CARTESIAN_POINT ( 'NONE',  ( 2.583696190743918430E-13, -9.062386313690413585E-15, 74.00000000000000000 ) ) ;
#24 = CONICAL_SURFACE ( 'NONE', #207, 3.549999999999984723, 1.029744258676649871 ) ;
#25 = CARTESIAN_POINT ( 'NONE',  ( 1.718664833508951373E-13, -3.549999999999990052, 25.00000000000000000 ) ) ;
#26 = ORIENTED_EDGE ( 'NONE', *, *, #219, .F. ) ;
#27 = DIRECTION ( 'NONE',  ( 0.0000000000000000000, 1.000000000000000000, 0.0000000000000000000 ) ) ;
#28 = CARTESIAN_POINT ( 'NONE',  ( 0.0000000000000000000, 0.0000000000000000000, 0.0000000000000000000 ) ) ;
#29 = LOCAL_TIME ( 9, 22, 48.00000000000000000, #237 ) ;
#30 = ORIENTED_EDGE ( 'NONE', *, *, #81, .F. ) ;
#31 = CLOSED_SHELL ( 'NONE', ( #139, #274, #111, #149, #269, #265 ) ) ;
#32 = PERSON_AND_ORGANIZATION ( #284, #46 ) ;
#33 = CARTESIAN_POINT ( 'NONE',  ( 4.780202755771678715E-14, -3.549999999999989608, 25.00000000000000000 ) ) ;
#34 = EDGE_CURVE ( 'NONE', #183, #70, #144, .T. ) ;
#35 = COORDINATED_UNIVERSAL_TIME_OFFSET ( 1, 0, .AHEAD. ) ;
#36 = CC_DESIGN_PERSON_AND_ORGANIZATION_ASSIGNMENT ( #291, #165, ( #302 ) ) ;
#37 = DATE_AND_TIME ( #310, #181 ) ;
#38 = ORIENTED_EDGE ( 'NONE', *, *, #321, .F. ) ;
#39 = CARTESIAN_POINT ( 'NONE',  ( 0.0000000000000000000, 0.0000000000000000000, 0.0000000000000000000 ) ) ;
#40 = AXIS2_PLACEMENT_3D ( 'NONE', #278, #185, #57 ) ;
#41 = CARTESIAN_POINT ( 'NONE',  ( 8.728703347107833388E-14, -3.061616997868383043E-15, 25.00000000000000000 ) ) ;
#42 = EDGE_CURVE ( 'NONE', #70, #275, #188, .T. ) ;
#43 = FACE_OUTER_BOUND ( 'NONE', #337, .T. ) ;
#44 = PRODUCT_RELATED_PRODUCT_CATEGORY ( 'detail', '', ( #93 ) ) ;
#45 = DIRECTION ( 'NONE',  ( 4.275831445896958607E-31, 1.000000000000000000, 1.224646799147353207E-16 ) ) ;
#46 = ORGANIZATION ( 'UNSPECIFIED', 'UNSPECIFIED', '' ) ;
#47 = DIRECTION ( 'NONE',  ( 0.0000000000000000000, 1.000000000000000000, 0.0000000000000000000 ) ) ;
#48 = EDGE_CURVE ( 'NONE', #209, #183, #318, .T. ) ;
#49 = CARTESIAN_POINT ( 'NONE',  ( 1.718664833508950111E-13, -3.550000000000002931, 73.20000000000001705 ) ) ;
#50 = DIRECTION ( 'NONE',  ( -3.491481338843133355E-15, 1.224646799147353207E-16, -1.000000000000000000 ) ) ;
#51 = AXIS2_PLACEMENT_3D ( 'NONE', #41, #213, #297 ) ;
#52 = EDGE_LOOP ( 'NONE', ( #30, #322, #105, #155 ) ) ;
#53 = CARTESIAN_POINT ( 'NONE',  ( 0.0000000000000000000, 0.0000000000000000000, 0.0000000000000000000 ) ) ;
#54 = DIRECTION ( 'NONE',  ( -3.491481338843133355E-15, 1.224646799147353207E-16, -1.000000000000000000 ) ) ;
#55 = ADVANCED_BREP_SHAPE_REPRESENTATION ( '8646', ( #272, #162, #9 ), #19 ) ;
#56 = LOCAL_TIME ( 9, 22, 48.00000000000000000, #212 ) ;
#57 = DIRECTION ( 'NONE',  ( 4.340123818337451868E-31, 1.000000000000000000, 1.221636250687897657E-16 ) ) ;
#58 = EDGE_CURVE ( 'NONE', #61, #335, #8, .T. ) ;
#59 = DIRECTION ( 'NONE',  ( -3.491481338843133355E-15, 1.224646799147353207E-16, -1.000000000000000000 ) ) ;
#60 = CALENDAR_DATE ( 2021, 3, 9 ) ;
#61 = VERTEX_POINT ( 'NONE', #91 ) ;
#62 = CC_DESIGN_APPROVAL ( #108, ( #302 ) ) ;
#63 = ORIENTED_EDGE ( 'NONE', *, *, #22, .T. ) ;
#64 = DIRECTION ( 'NONE',  ( -3.491481338843133355E-15, 1.224646799147353207E-16, -1.000000000000000000 ) ) ;
#65 = LINE ( 'NONE', #271, #256 ) ;
#66 = AXIS2_PLACEMENT_3D ( 'NONE', #306, #223, #27 ) ;
#67 = DIRECTION ( 'NONE',  ( 0.0000000000000000000, 1.000000000000000000, 0.0000000000000000000 ) ) ;
#68 = DATE_TIME_ROLE ( 'classification_date' ) ;
#69 = CARTESIAN_POINT ( 'NONE',  ( 8.728703347107833388E-14, 3.549999999999984279, 25.00000000000000000 ) ) ;
#70 = VERTEX_POINT ( 'NONE', #69 ) ;
#71 = CC_DESIGN_SECURITY_CLASSIFICATION ( #302, ( #80 ) ) ;
#72 = APPROVAL ( #233, 'UNSPECIFIED' ) ;
#73 = DIRECTION ( 'NONE',  ( -3.491481338843133355E-15, 1.224646799147353207E-16, -1.000000000000000000 ) ) ;
#74 = AXIS2_PLACEMENT_3D ( 'NONE', #241, #15, #120 ) ;
#75 = APPROVAL_PERSON_ORGANIZATION ( #215, #108, #317 ) ;
#76 = DIRECTION ( 'NONE',  ( -3.491481338843133355E-15, 1.224646799147353207E-16, -1.000000000000000000 ) ) ;
#77 = CARTESIAN_POINT ( 'NONE',  ( 2.583696190743918430E-13, -9.062386313690413585E-15, 74.00000000000000000 ) ) ;
#78 = EDGE_LOOP ( 'NONE', ( #194, #216, #255, #140 ) ) ;
#79 = DIRECTION ( 'NONE',  ( 4.275831445896958607E-31, 1.000000000000000000, 1.224646799147353207E-16 ) ) ;
#80 = PRODUCT_DEFINITION_FORMATION_WITH_SPECIFIED_SOURCE ( 'ANY', '', #93, .NOT_KNOWN. ) ;
#81 = EDGE_CURVE ( 'NONE', #209, #275, #189, .T. ) ;
#82 = CYLINDRICAL_SURFACE ( 'NONE', #263, 3.549999999999986056 ) ;
#83 = ORIENTED_EDGE ( 'NONE', *, *, #295, .F. ) ;
#84 = PERSON_AND_ORGANIZATION ( #284, #46 ) ;
#85 =( NAMED_UNIT ( * ) PLANE_ANGLE_UNIT ( ) SI_UNIT ( $, .RADIAN. ) );
#86 = ADVANCED_FACE ( 'NONE', ( #145 ), #136, .T. ) ;
#87 = APPROVAL_DATE_TIME ( #37, #72 ) ;
#88 = ORIENTED_EDGE ( 'NONE', *, *, #127, .F. ) ;
#89 = CC_DESIGN_PERSON_AND_ORGANIZATION_ASSIGNMENT ( #309, #285, ( #80 ) ) ;
#90 = APPROVAL_DATE_TIME ( #168, #108 ) ;
#91 = CARTESIAN_POINT ( 'NONE',  ( 8.728703347107833388E-14, 3.549999999999984279, 25.00000000000000000 ) ) ;
#92 = APPROVAL_STATUS ( 'not_yet_approved' ) ;
#93 = PRODUCT ( '8646', '8646', '', ( #186 ) ) ;
#94 = ORIENTED_EDGE ( 'NONE', *, *, #118, .T. ) ;
#95 = CARTESIAN_POINT ( 'NONE',  ( 8.728703347107833388E-14, -3.061616997868383043E-15, 25.00000000000000000 ) ) ;
#96 = DIRECTION ( 'NONE',  ( 3.491481338843133355E-15, -1.224646799147353207E-16, 1.000000000000000000 ) ) ;
#97 = CARTESIAN_POINT ( 'NONE',  ( 7.447522416960680188E-15, -2.612239220081602794E-16, 2.133055197547852444 ) ) ;
#98 = ADVANCED_FACE ( 'NONE', ( #170 ), #218, .T. ) ;
#99 = LINE ( 'NONE', #333, #262 ) ;
#100 = LINE ( 'NONE', #252, #147 ) ;
#101 = AXIS2_PLACEMENT_3D ( 'NONE', #23, #76, #150 ) ;
#102 = LOCAL_TIME ( 9, 22, 48.00000000000000000, #187 ) ;
#103 = CYLINDRICAL_SURFACE ( 'NONE', #287, 3.549999999999986056 ) ;
#104 = CARTESIAN_POINT ( 'NONE',  ( 0.0000000000000000000, 0.0000000000000000000, 0.0000000000000000000 ) ) ;
#105 = ORIENTED_EDGE ( 'NONE', *, *, #34, .T. ) ;
#106 = CARTESIAN_POINT ( 'NONE',  ( 2.583696190743918430E-13, 2.062169701160035600E-32, 74.00000000000000000 ) ) ;
#107 = AXIS2_PLACEMENT_3D ( 'NONE', #104, #148, #45 ) ;
#108 = APPROVAL ( #92, 'UNSPECIFIED' ) ;
#109 = CARTESIAN_POINT ( 'NONE',  ( 7.882272030657991857E-15, 3.549999999999984279, 2.133055197547852888 ) ) ;
#110 = EDGE_LOOP ( 'NONE', ( #253, #294, #83, #141 ) ) ;
#111 = ADVANCED_FACE ( 'NONE', ( #43 ), #242, .F. ) ;
#112 = APPLICATION_PROTOCOL_DEFINITION ( 'international standard', 'config_control_design', 1994, #221 ) ;
#113 = CARTESIAN_POINT ( 'NONE',  ( 2.555764340033173868E-13, -8.964414569758626729E-15, 73.20000000000001705 ) ) ;
#114 = CARTESIAN_POINT ( 'NONE',  ( 2.555764340033173868E-13, -8.964414569758626729E-15, 73.20000000000001705 ) ) ;
#115 = DATE_AND_TIME ( #320, #102 ) ;
#116 = CARTESIAN_POINT ( 'NONE',  ( 8.728703347107833388E-14, -3.061616997868383043E-15, 25.00000000000000000 ) ) ;
#117 = DESIGN_CONTEXT ( 'detailed design', #254, 'design' ) ;
#118 = EDGE_CURVE ( 'NONE', #282, #298, #18, .T. ) ;
#119 = ORIENTED_EDGE ( 'NONE', *, *, #314, .F. ) ;
#120 = DIRECTION ( 'NONE',  ( -4.340123818337451868E-31, -1.000000000000000000, -1.221636250687897657E-16 ) ) ;
#121 = VECTOR ( 'NONE', #224, 1000.000000000000000 ) ;
#122 = DIRECTION ( 'NONE',  ( -3.491481338843133355E-15, 1.224646799147353207E-16, -1.000000000000000000 ) ) ;
#123 = CARTESIAN_POINT ( 'NONE',  ( 2.555764340033173868E-13, 3.549999999999984279, 73.20000000000001705 ) ) ;
#124 = CARTESIAN_POINT ( 'NONE',  ( 1.517920163293414359E-30, 3.549999999999986056, 4.347496136973086124E-16 ) ) ;
#125 = FACE_OUTER_BOUND ( 'NONE', #52, .T. ) ;
#126 = VECTOR ( 'NONE', #64, 1000.000000000000000 ) ;
#127 = EDGE_CURVE ( 'NONE', #164, #292, #301, .T. ) ;
#128 = DIRECTION ( 'NONE',  ( 4.340123818337451868E-31, 1.000000000000000000, 1.221636250687897657E-16 ) ) ;
#129 = FACE_OUTER_BOUND ( 'NONE', #172, .T. ) ;
#130 = APPROVAL_DATE_TIME ( #159, #206 ) ;
#131 = AXIS2_PLACEMENT_3D ( 'NONE', #95, #191, #67 ) ;
#132 = ORIENTED_EDGE ( 'NONE', *, *, #234, .F. ) ;
#133 = CALENDAR_DATE ( 2021, 3, 9 ) ;
#134 = DIRECTION ( 'NONE',  ( 1.000000000000000000, 0.0000000000000000000, 0.0000000000000000000 ) ) ;
#135 = PERSON_AND_ORGANIZATION_ROLE ( 'creator' ) ;
#136 = CONICAL_SURFACE ( 'NONE', #74, 3.549999999999984723, 1.029744258676649871 ) ;
#137 = AXIS2_PLACEMENT_3D ( 'NONE', #77, #203, #177 ) ;
#138 = PERSON_AND_ORGANIZATION_ROLE ( 'creator' ) ;
#139 = ADVANCED_FACE ( 'NONE', ( #245 ), #196, .T. ) ;
#140 = ORIENTED_EDGE ( 'NONE', *, *, #34, .F. ) ;
#141 = ORIENTED_EDGE ( 'NONE', *, *, #142, .F. ) ;
#142 = EDGE_CURVE ( 'NONE', #61, #298, #175, .T. ) ;
#143 = SECURITY_CLASSIFICATION_LEVEL ( 'unclassified' ) ;
#144 = LINE ( 'NONE', #240, #12 ) ;
#145 = FACE_OUTER_BOUND ( 'NONE', #190, .T. ) ;
#146 = ORIENTED_EDGE ( 'NONE', *, *, #219, .T. ) ;
#147 = VECTOR ( 'NONE', #330, 1000.000000000000000 ) ;
#148 = DIRECTION ( 'NONE',  ( -3.491481338843133355E-15, 1.224646799147353207E-16, -1.000000000000000000 ) ) ;
#149 = ADVANCED_FACE ( 'NONE', ( #125 ), #279, .T. ) ;
#150 = DIRECTION ( 'NONE',  ( 0.0000000000000000000, 1.000000000000000000, 0.0000000000000000000 ) ) ;
#151 = CARTESIAN_POINT ( 'NONE',  ( 7.447522416960678610E-15, -3.549999999999985167, 2.133055197547852444 ) ) ;
#152 = CC_DESIGN_PERSON_AND_ORGANIZATION_ASSIGNMENT ( #235, #138, ( #80 ) ) ;
#153 = DIRECTION ( 'NONE',  ( -4.340123818337451868E-31, -1.000000000000000000, -1.221636250687897657E-16 ) ) ;
#154 = CC_DESIGN_APPROVAL ( #72, ( #80 ) ) ;
#155 = ORIENTED_EDGE ( 'NONE', *, *, #17, .F. ) ;
#156 = DIRECTION ( 'NONE',  ( 4.275831445896958607E-31, 1.000000000000000000, 1.224646799147352961E-16 ) ) ;
#157 = ORIENTED_EDGE ( 'NONE', *, *, #118, .F. ) ;
#158 = ORIENTED_EDGE ( 'NONE', *, *, #171, .F. ) ;
#159 = DATE_AND_TIME ( #60, #29 ) ;
#160 = CIRCLE ( 'NONE', #192, 3.549999999999993161 ) ;
#161 = CARTESIAN_POINT ( 'NONE',  ( 7.882272030657991857E-15, 3.549999999999984279, 2.133055197547852888 ) ) ;
#162 = MANIFOLD_SOLID_BREP ( 'Corps-Déplacer/Copier1[2]', #276 ) ;
#163 = ORIENTED_EDGE ( 'NONE', *, *, #197, .T. ) ;
#164 = VERTEX_POINT ( 'NONE', #247 ) ;
#165 = PERSON_AND_ORGANIZATION_ROLE ( 'classification_officer' ) ;
#166 = ORIENTED_EDGE ( 'NONE', *, *, #197, .F. ) ;
#167 = CIRCLE ( 'NONE', #66, 2.749999999999993339 ) ;
#168 = DATE_AND_TIME ( #267, #56 ) ;
#169 = DIRECTION ( 'NONE',  ( 0.0000000000000000000, 1.000000000000000000, 0.0000000000000000000 ) ) ;
#170 = FACE_OUTER_BOUND ( 'NONE', #193, .T. ) ;
#171 = EDGE_CURVE ( 'NONE', #335, #282, #100, .T. ) ;
#172 = EDGE_LOOP ( 'NONE', ( #88, #26 ) ) ;
#173 = CIRCLE ( 'NONE', #40, 3.549999999999984723 ) ;
#174 = CARTESIAN_POINT ( 'NONE',  ( 0.0000000000000000000, 0.0000000000000000000, 0.0000000000000000000 ) ) ;
#175 = LINE ( 'NONE', #124, #180 ) ;
#176 = ADVANCED_FACE ( 'NONE', ( #201 ), #24, .T. ) ;
#177 = DIRECTION ( 'NONE',  ( 0.0000000000000000000, 1.000000000000000000, 0.0000000000000000000 ) ) ;
#178 = ORIENTED_EDGE ( 'NONE', *, *, #42, .T. ) ;
#179 = FACE_OUTER_BOUND ( 'NONE', #78, .T. ) ;
#180 = VECTOR ( 'NONE', #227, 1000.000000000000000 ) ;
#181 = LOCAL_TIME ( 9, 22, 48.00000000000000000, #35 ) ;
#182 = CARTESIAN_POINT ( 'NONE',  ( 2.573587902805860395E-13, -2.750000000000002665, 74.00000000000000000 ) ) ;
#183 = VERTEX_POINT ( 'NONE', #123 ) ;
#184 = PERSON_AND_ORGANIZATION_ROLE ( 'design_owner' ) ;
#185 = DIRECTION ( 'NONE',  ( -3.491481338843133355E-15, 1.224646799147353207E-16, -1.000000000000000000 ) ) ;
#186 = MECHANICAL_CONTEXT ( 'NONE', #221, 'mechanical' ) ;
#187 = COORDINATED_UNIVERSAL_TIME_OFFSET ( 1, 0, .AHEAD. ) ;
#188 = CIRCLE ( 'NONE', #131, 3.549999999999987388 ) ;
#189 = LINE ( 'NONE', #293, #126 ) ;
#190 = EDGE_LOOP ( 'NONE', ( #211, #202, #94 ) ) ;
#191 = DIRECTION ( 'NONE',  ( -3.491481338843133355E-15, 1.224646799147353207E-16, -1.000000000000000000 ) ) ;
#192 = AXIS2_PLACEMENT_3D ( 'NONE', #113, #54, #6 ) ;
#193 = EDGE_LOOP ( 'NONE', ( #319, #119 ) ) ;
#194 = ORIENTED_EDGE ( 'NONE', *, *, #321, .T. ) ;
#195 = LINE ( 'NONE', #151, #121 ) ;
#196 = CONICAL_SURFACE ( 'NONE', #101, 2.749999999999993339, 0.7853981633974599363 ) ;
#197 = EDGE_CURVE ( 'NONE', #164, #183, #99, .T. ) ;
#198 = APPROVAL_PERSON_ORGANIZATION ( #32, #206, #10 ) ;
#199 = CARTESIAN_POINT ( 'NONE',  ( 0.0000000000000000000, 0.0000000000000000000, 0.0000000000000000000 ) ) ;
#200 = PLANE ( 'NONE',  #244 ) ;
#201 = FACE_OUTER_BOUND ( 'NONE', #313, .T. ) ;
#202 = ORIENTED_EDGE ( 'NONE', *, *, #234, .T. ) ;
#203 = DIRECTION ( 'NONE',  ( -3.491481338843133355E-15, 1.224646799147353207E-16, -1.000000000000000000 ) ) ;
#204 = PERSON_AND_ORGANIZATION ( #284, #46 ) ;
#205 = COORDINATED_UNIVERSAL_TIME_OFFSET ( 1, 0, .AHEAD. ) ;
#206 = APPROVAL ( #315, 'UNSPECIFIED' ) ;
#207 = AXIS2_PLACEMENT_3D ( 'NONE', #21, #20, #153 ) ;
#208 = APPLICATION_PROTOCOL_DEFINITION ( 'international standard', 'config_control_design', 1994, #254 ) ;
#209 = VERTEX_POINT ( 'NONE', #49 ) ;
#210 = LINE ( 'NONE', #109, #225 ) ;
#211 = ORIENTED_EDGE ( 'NONE', *, *, #329, .F. ) ;
#212 = COORDINATED_UNIVERSAL_TIME_OFFSET ( 1, 0, .AHEAD. ) ;
#213 = DIRECTION ( 'NONE',  ( -3.491481338843133355E-15, 1.224646799147353207E-16, -1.000000000000000000 ) ) ;
#214 = APPROVAL_PERSON_ORGANIZATION ( #261, #72, #308 ) ;
#215 = PERSON_AND_ORGANIZATION ( #284, #46 ) ;
#216 = ORIENTED_EDGE ( 'NONE', *, *, #81, .T. ) ;
#217 = DIRECTION ( 'NONE',  ( -2.382254525458686704E-15, -0.7071067811865555663, -0.7071067811865393571 ) ) ;
#218 = PLANE ( 'NONE',  #311 ) ;
#219 = EDGE_CURVE ( 'NONE', #292, #164, #167, .T. ) ;
#220 = DIRECTION ( 'NONE',  ( 3.491481338843133355E-15, -1.224646799147353207E-16, 1.000000000000000000 ) ) ;
#221 = APPLICATION_CONTEXT ( 'configuration controlled 3d designs of mechanical parts and assemblies' ) ;
#222 = CC_DESIGN_DATE_AND_TIME_ASSIGNMENT ( #115, #68, ( #302 ) ) ;
#223 = DIRECTION ( 'NONE',  ( -3.491481338843133355E-15, 1.224646799147353207E-16, -1.000000000000000000 ) ) ;
#224 = DIRECTION ( 'NONE',  ( 1.798245827342159528E-15, -0.8571673007021100021, 0.5150380749100580413 ) ) ;
#225 = VECTOR ( 'NONE', #288, 1000.000000000000114 ) ;
#226 = DIRECTION ( 'NONE',  ( -2.468850131082236550E-15, 0.7071067811865558994, -0.7071067811865392461 ) ) ;
#227 = DIRECTION ( 'NONE',  ( -3.491481338843133355E-15, 1.224646799147353207E-16, -1.000000000000000000 ) ) ;
#228 = FACE_OUTER_BOUND ( 'NONE', #110, .T. ) ;
#229 = PRODUCT_DEFINITION ( 'UNKNOWN', '', #80, #117 ) ;
#230 = DATE_TIME_ROLE ( 'creation_date' ) ;
#231 = AXIS2_PLACEMENT_3D ( 'NONE', #116, #122, #11 ) ;
#232 = ORIENTED_EDGE ( 'NONE', *, *, #295, .T. ) ;
#233 = APPROVAL_STATUS ( 'not_yet_approved' ) ;
#234 = EDGE_CURVE ( 'NONE', #14, #282, #195, .T. ) ;
#235 = PERSON_AND_ORGANIZATION ( #284, #46 ) ;
#236 = AXIS2_PLACEMENT_3D ( 'NONE', #97, #248, #128 ) ;
#237 = COORDINATED_UNIVERSAL_TIME_OFFSET ( 1, 0, .AHEAD. ) ;
#238 = EDGE_LOOP ( 'NONE', ( #289, #63, #38, #166 ) ) ;
#239 = EDGE_LOOP ( 'NONE', ( #268, #146, #163, #251 ) ) ;
#240 = CARTESIAN_POINT ( 'NONE',  ( 1.517920163293416110E-30, 3.549999999999990052, 4.347496136973092040E-16 ) ) ;
#241 = CARTESIAN_POINT ( 'NONE',  ( 7.447522416960680188E-15, -2.612239220081602794E-16, 2.133055197547852444 ) ) ;
#242 = PLANE ( 'NONE',  #243 ) ;
#243 = AXIS2_PLACEMENT_3D ( 'NONE', #16, #220, #328 ) ;
#244 = AXIS2_PLACEMENT_3D ( 'NONE', #106, #73, #79 ) ;
#245 = FACE_OUTER_BOUND ( 'NONE', #238, .T. ) ;
#246 = CC_DESIGN_PERSON_AND_ORGANIZATION_ASSIGNMENT ( #204, #184, ( #93 ) ) ;
#247 = CARTESIAN_POINT ( 'NONE',  ( 2.583696190743918430E-13, 2.749999999999984013, 74.00000000000000000 ) ) ;
#248 = DIRECTION ( 'NONE',  ( -3.491481338843133355E-15, 1.224646799147353207E-16, -1.000000000000000000 ) ) ;
#249 = AXIS2_PLACEMENT_3D ( 'NONE', #114, #296, #169 ) ;
#250 = DIRECTION ( 'NONE',  ( 4.275831445896958607E-31, 1.000000000000000000, 1.224646799147353207E-16 ) ) ;
#251 = ORIENTED_EDGE ( 'NONE', *, *, #48, .F. ) ;
#252 = CARTESIAN_POINT ( 'NONE',  ( 4.347496136973071826E-16, -3.549999999999986056, -4.347496136973101901E-16 ) ) ;
#253 = ORIENTED_EDGE ( 'NONE', *, *, #58, .T. ) ;
#254 = APPLICATION_CONTEXT ( 'configuration controlled 3d designs of mechanical parts and assemblies' ) ;
#255 = ORIENTED_EDGE ( 'NONE', *, *, #42, .F. ) ;
#256 = VECTOR ( 'NONE', #217, 1000.000000000000114 ) ;
#257 = CC_DESIGN_APPROVAL ( #206, ( #229 ) ) ;
#258 = ADVANCED_FACE ( 'NONE', ( #228 ), #103, .T. ) ;
#259 = DIRECTION ( 'NONE',  ( 0.0000000000000000000, 1.000000000000000000, 0.0000000000000000000 ) ) ;
#260 = DIRECTION ( 'NONE',  ( 0.0000000000000000000, 0.0000000000000000000, 1.000000000000000000 ) ) ;
#261 = PERSON_AND_ORGANIZATION ( #284, #46 ) ;
#262 = VECTOR ( 'NONE', #226, 1000.000000000000000 ) ;
#263 = AXIS2_PLACEMENT_3D ( 'NONE', #53, #336, #156 ) ;
#264 = SHAPE_DEFINITION_REPRESENTATION ( #334, #55 ) ;
#265 = ADVANCED_FACE ( 'NONE', ( #129 ), #200, .F. ) ;
#266 = ORIENTED_EDGE ( 'NONE', *, *, #142, .T. ) ;
#267 = CALENDAR_DATE ( 2021, 3, 9 ) ;
#268 = ORIENTED_EDGE ( 'NONE', *, *, #22, .F. ) ;
#269 = ADVANCED_FACE ( 'NONE', ( #304 ), #300, .T. ) ;
#270 = LOCAL_TIME ( 9, 22, 48.00000000000000000, #205 ) ;
#271 = CARTESIAN_POINT ( 'NONE',  ( 2.587063969441573836E-13, -2.750000000000002665, 74.00000000000000000 ) ) ;
#272 = MANIFOLD_SOLID_BREP ( 'Corps-Déplacer/Copier1[1]', #31 ) ;
#273 = DIRECTION ( 'NONE',  ( -4.275831445896958607E-31, -1.000000000000000000, -1.224646799147353207E-16 ) ) ;
#274 = ADVANCED_FACE ( 'NONE', ( #179 ), #280, .T. ) ;
#275 = VERTEX_POINT ( 'NONE', #25 ) ;
#276 = CLOSED_SHELL ( 'NONE', ( #258, #176, #86, #290, #98 ) ) ;
#277 = AXIS2_PLACEMENT_3D ( 'NONE', #4, #59, #259 ) ;
#278 = CARTESIAN_POINT ( 'NONE',  ( 7.447522416960680188E-15, -2.612239220081602794E-16, 2.133055197547852444 ) ) ;
#279 = CYLINDRICAL_SURFACE ( 'NONE', #107, 3.549999999999990052 ) ;
#280 = CYLINDRICAL_SURFACE ( 'NONE', #3, 3.549999999999990052 ) ;
#281 = CARTESIAN_POINT ( 'NONE',  ( 7.447522416960678610E-15, -3.549999999999985167, 2.133055197547852444 ) ) ;
#282 = VERTEX_POINT ( 'NONE', #281 ) ;
#283 = ORIENTED_EDGE ( 'NONE', *, *, #17, .T. ) ;
#284 = PERSON ( 'UNSPECIFIED', 'UNSPECIFIED', 'UNSPECIFIED', ('UNSPECIFIED'), ('UNSPECIFIED'), ('UNSPECIFIED') ) ;
#285 = PERSON_AND_ORGANIZATION_ROLE ( 'design_supplier' ) ;
#286 =( NAMED_UNIT ( * ) SI_UNIT ( $, .STERADIAN. ) SOLID_ANGLE_UNIT ( ) );
#287 = AXIS2_PLACEMENT_3D ( 'NONE', #199, #303, #299 ) ;
#288 = DIRECTION ( 'NONE',  ( 1.903218546456021928E-15, 0.8571673007021098911, 0.5150380749100583744 ) ) ;
#289 = ORIENTED_EDGE ( 'NONE', *, *, #127, .T. ) ;
#290 = ADVANCED_FACE ( 'NONE', ( #307 ), #82, .T. ) ;
#291 = PERSON_AND_ORGANIZATION ( #284, #46 ) ;
#292 = VERTEX_POINT ( 'NONE', #182 ) ;
#293 = CARTESIAN_POINT ( 'NONE',  ( 4.347496136973076756E-16, -3.549999999999990052, -4.347496136973106831E-16 ) ) ;
#294 = ORIENTED_EDGE ( 'NONE', *, *, #171, .T. ) ;
#295 = EDGE_CURVE ( 'NONE', #298, #282, #173, .T. ) ;
#296 = DIRECTION ( 'NONE',  ( -3.491481338843133355E-15, 1.224646799147353207E-16, -1.000000000000000000 ) ) ;
#297 = DIRECTION ( 'NONE',  ( 0.0000000000000000000, 1.000000000000000000, 0.0000000000000000000 ) ) ;
#298 = VERTEX_POINT ( 'NONE', #161 ) ;
#299 = DIRECTION ( 'NONE',  ( 4.275831445896958607E-31, 1.000000000000000000, 1.224646799147352961E-16 ) ) ;
#300 = CONICAL_SURFACE ( 'NONE', #137, 2.749999999999993339, 0.7853981633974599363 ) ;
#301 = CIRCLE ( 'NONE', #326, 2.749999999999993339 ) ;
#302 = SECURITY_CLASSIFICATION ( '', '', #143 ) ;
#303 = DIRECTION ( 'NONE',  ( -3.491481338843133355E-15, 1.224646799147353207E-16, -1.000000000000000000 ) ) ;
#304 = FACE_OUTER_BOUND ( 'NONE', #239, .T. ) ;
#305 = CC_DESIGN_PERSON_AND_ORGANIZATION_ASSIGNMENT ( #84, #135, ( #229 ) ) ;
#306 = CARTESIAN_POINT ( 'NONE',  ( 2.583696190743918430E-13, -9.062386313690413585E-15, 74.00000000000000000 ) ) ;
#307 = FACE_OUTER_BOUND ( 'NONE', #316, .T. ) ;
#308 = APPROVAL_ROLE ( '' ) ;
#309 = PERSON_AND_ORGANIZATION ( #284, #46 ) ;
#310 = CALENDAR_DATE ( 2021, 3, 9 ) ;
#311 = AXIS2_PLACEMENT_3D ( 'NONE', #325, #96, #273 ) ;
#312 =( LENGTH_UNIT ( ) NAMED_UNIT ( * ) SI_UNIT ( .MILLI., .METRE. ) );
#313 = EDGE_LOOP ( 'NONE', ( #132, #13, #232 ) ) ;
#314 = EDGE_CURVE ( 'NONE', #335, #61, #327, .T. ) ;
#315 = APPROVAL_STATUS ( 'not_yet_approved' ) ;
#316 = EDGE_LOOP ( 'NONE', ( #158, #5, #266, #157 ) ) ;
#317 = APPROVAL_ROLE ( '' ) ;
#318 = CIRCLE ( 'NONE', #249, 3.549999999999993161 ) ;
#319 = ORIENTED_EDGE ( 'NONE', *, *, #58, .F. ) ;
#320 = CALENDAR_DATE ( 2021, 3, 9 ) ;
#321 = EDGE_CURVE ( 'NONE', #183, #209, #160, .T. ) ;
#322 = ORIENTED_EDGE ( 'NONE', *, *, #48, .T. ) ;
#323 = UNCERTAINTY_MEASURE_WITH_UNIT (LENGTH_MEASURE( 1.000000000000000082E-05 ), #312, 'distance_accuracy_value', 'NONE');
#324 = DIRECTION ( 'NONE',  ( -3.491481338843133355E-15, 1.224646799147353207E-16, -1.000000000000000000 ) ) ;
#325 = CARTESIAN_POINT ( 'NONE',  ( 8.728703347107833388E-14, 2.662073614224783296E-32, 25.00000000000000000 ) ) ;
#326 = AXIS2_PLACEMENT_3D ( 'NONE', #331, #1, #47 ) ;
#327 = CIRCLE ( 'NONE', #277, 3.549999999999987388 ) ;
#328 = DIRECTION ( 'NONE',  ( -4.275831445896958607E-31, -1.000000000000000000, -1.224646799147353207E-16 ) ) ;
#329 = EDGE_CURVE ( 'NONE', #14, #298, #210, .T. ) ;
#330 = DIRECTION ( 'NONE',  ( -3.491481338843133355E-15, 1.224646799147353207E-16, -1.000000000000000000 ) ) ;
#331 = CARTESIAN_POINT ( 'NONE',  ( 2.583696190743918430E-13, -9.062386313690413585E-15, 74.00000000000000000 ) ) ;
#332 = CC_DESIGN_DATE_AND_TIME_ASSIGNMENT ( #7, #230, ( #229 ) ) ;
#333 = CARTESIAN_POINT ( 'NONE',  ( 2.583696190743918430E-13, 2.749999999999984013, 74.00000000000000000 ) ) ;
#334 = PRODUCT_DEFINITION_SHAPE ( 'NONE', 'NONE',  #229 ) ;
#335 = VERTEX_POINT ( 'NONE', #33 ) ;
#336 = DIRECTION ( 'NONE',  ( -3.491481338843133355E-15, 1.224646799147353207E-16, -1.000000000000000000 ) ) ;
#337 = EDGE_LOOP ( 'NONE', ( #178, #283 ) ) ;
ENDSEC;
END-ISO-10303-21;
