ISO-10303-21;
HEADER;
FILE_DESCRIPTION (( 'STEP AP203' ),
    '1' );
FILE_NAME ('8001.step',
    '2021-12-06T13:00:19',
    ( '' ),
    ( '' ),
    'SwSTEP 2.0',
    'SolidWorks 2019',
    '' );
FILE_SCHEMA (( 'CONFIG_CONTROL_DESIGN' ));
ENDSEC;

DATA;
#1 = AXIS2_PLACEMENT_3D ( 'NONE', #45, #30, #149 ) ;
#2 = ADVANCED_FACE ( 'NONE', ( #108, #158 ), #131, .F. ) ;
#3 = EDGE_LOOP ( 'NONE', ( #4 ) ) ;
#4 = ORIENTED_EDGE ( 'NONE', *, *, #67, .F. ) ;
#5 = APPROVAL ( #99, 'UNSPECIFIED' ) ;
#6 = MANIFOLD_SOLID_BREP ( 'Corps-Déplacer/Copier1', #152 ) ;
#7 = FACE_BOUND ( 'NONE', #121, .T. ) ;
#8 = CC_DESIGN_APPROVAL ( #46, ( #86 ) ) ;
#9 = DATE_AND_TIME ( #129, #44 ) ;
#10 = PRODUCT ( '8001', '8001', '', ( #165 ) ) ;
#11 = CARTESIAN_POINT ( 'NONE',  ( 0.0000000000000000000, 0.0000000000000000000, 0.0000000000000000000 ) ) ;
#12 = CALENDAR_DATE ( 2021, 6, 12 ) ;
#13 = EDGE_LOOP ( 'NONE', ( #69 ) ) ;
#14 = AXIS2_PLACEMENT_3D ( 'NONE', #11, #160, #40 ) ;
#15 = CARTESIAN_POINT ( 'NONE',  ( 0.0000000000000000000, 25.00000000000000000, 0.0000000000000000000 ) ) ;
#16 = DIRECTION ( 'NONE',  ( -3.491481338843133355E-15, 1.224646799147353207E-16, -1.000000000000000000 ) ) ;
#17 = UNCERTAINTY_MEASURE_WITH_UNIT (LENGTH_MEASURE( 1.000000000000000082E-05 ), #19, 'distance_accuracy_value', 'NONE');
#18 = CC_DESIGN_APPROVAL ( #24, ( #137 ) ) ;
#19 =( LENGTH_UNIT ( ) NAMED_UNIT ( * ) SI_UNIT ( .MILLI., .METRE. ) );
#20 = CIRCLE ( 'NONE', #114, 6.500000000000000000 ) ;
#21 = LOCAL_TIME ( 14, 0, 19.00000000000000000, #128 ) ;
#22 = DATE_TIME_ROLE ( 'creation_date' ) ;
#23 = APPROVAL_STATUS ( 'not_yet_approved' ) ;
#24 = APPROVAL ( #35, 'UNSPECIFIED' ) ;
#25 = PRODUCT_DEFINITION ( 'UNKNOWN', '', #86, #57 ) ;
#26 = DIRECTION ( 'NONE',  ( 4.314083075427408311E-31, 1.000000000000000000, 1.214306433183764966E-16 ) ) ;
#27 = FACE_OUTER_BOUND ( 'NONE', #79, .T. ) ;
#28 = ADVANCED_FACE ( 'NONE', ( #37, #36 ), #93, .T. ) ;
#29 = CARTESIAN_POINT ( 'NONE',  ( 5.935518276033315660E-15, -2.081899558550496582E-16, 1.699999999999996847 ) ) ;
#30 = DIRECTION ( 'NONE',  ( -3.491481338843133355E-15, 1.224646799147353207E-16, -1.000000000000000000 ) ) ;
#31 = PRODUCT_DEFINITION_SHAPE ( 'NONE', 'NONE',  #25 ) ;
#32 = AXIS2_PLACEMENT_3D ( 'NONE', #73, #58, #33 ) ;
#33 = DIRECTION ( 'NONE',  ( 4.275831445896958607E-31, 1.000000000000000000, 1.224646799147353207E-16 ) ) ;
#34 = ADVANCED_BREP_SHAPE_REPRESENTATION ( '8001', ( #6, #81 ), #52 ) ;
#35 = APPROVAL_STATUS ( 'not_yet_approved' ) ;
#36 = FACE_OUTER_BOUND ( 'NONE', #3, .T. ) ;
#37 = FACE_BOUND ( 'NONE', #146, .T. ) ;
#38 = ORGANIZATION ( 'UNSPECIFIED', 'UNSPECIFIED', '' ) ;
#39 = EDGE_LOOP ( 'NONE', ( #157 ) ) ;
#40 = DIRECTION ( 'NONE',  ( 4.275831445896958607E-31, 1.000000000000000000, 1.224646799147353207E-16 ) ) ;
#41 = PERSON_AND_ORGANIZATION ( #119, #38 ) ;
#42 = CARTESIAN_POINT ( 'NONE',  ( -1.068957861474239634E-29, 3.749399456654644239E-31, -3.061616997868383043E-15 ) ) ;
#43 = CIRCLE ( 'NONE', #153, 25.00000000000000000 ) ;
#44 = LOCAL_TIME ( 14, 0, 19.00000000000000000, #142 ) ;
#45 = CARTESIAN_POINT ( 'NONE',  ( -2.779290439833023357E-30, 9.748438587302075546E-32, -7.960204194457796463E-16 ) ) ;
#46 = APPROVAL ( #23, 'UNSPECIFIED' ) ;
#47 = APPLICATION_PROTOCOL_DEFINITION ( 'international standard', 'config_control_design', 1994, #151 ) ;
#48 = CALENDAR_DATE ( 2021, 6, 12 ) ;
#49 = APPROVAL_DATE_TIME ( #9, #24 ) ;
#50 = EDGE_CURVE ( 'NONE', #84, #84, #20, .T. ) ;
#51 = PERSON_AND_ORGANIZATION ( #119, #38 ) ;
#52 =( GEOMETRIC_REPRESENTATION_CONTEXT ( 3 ) GLOBAL_UNCERTAINTY_ASSIGNED_CONTEXT ( ( #17 ) ) GLOBAL_UNIT_ASSIGNED_CONTEXT ( ( #19, #103, #85 ) ) REPRESENTATION_CONTEXT ( 'NONE', 'WORKASPACE' ) );
#53 = EDGE_LOOP ( 'NONE', ( #97 ) ) ;
#54 = PERSON_AND_ORGANIZATION ( #119, #38 ) ;
#55 = COORDINATED_UNIVERSAL_TIME_OFFSET ( 1, 0, .AHEAD. ) ;
#56 = DIRECTION ( 'NONE',  ( 4.740750632337811128E-31, 1.000000000000000000, 1.334402673828313093E-16 ) ) ;
#57 = DESIGN_CONTEXT ( 'detailed design', #120, 'design' ) ;
#58 = DIRECTION ( 'NONE',  ( -3.491481338843133355E-15, 1.224646799147353207E-16, -1.000000000000000000 ) ) ;
#59 = DIRECTION ( 'NONE',  ( 0.0000000000000000000, 0.0000000000000000000, 1.000000000000000000 ) ) ;
#60 = AXIS2_PLACEMENT_3D ( 'NONE', #29, #16, #26 ) ;
#61 = CC_DESIGN_SECURITY_CLASSIFICATION ( #137, ( #86 ) ) ;
#62 = PERSON_AND_ORGANIZATION_ROLE ( 'creator' ) ;
#63 = DATE_AND_TIME ( #48, #96 ) ;
#64 = CC_DESIGN_PERSON_AND_ORGANIZATION_ASSIGNMENT ( #51, #78, ( #137 ) ) ;
#65 = DATE_AND_TIME ( #12, #21 ) ;
#66 = DIRECTION ( 'NONE',  ( -4.275831445896958607E-31, -1.000000000000000000, -1.224646799147353207E-16 ) ) ;
#67 = EDGE_CURVE ( 'NONE', #135, #135, #132, .T. ) ;
#68 = EDGE_CURVE ( 'NONE', #100, #100, #87, .T. ) ;
#69 = ORIENTED_EDGE ( 'NONE', *, *, #159, .F. ) ;
#70 = DIRECTION ( 'NONE',  ( -3.491481338843133355E-15, 1.224646799147353207E-16, -1.000000000000000000 ) ) ;
#71 = CARTESIAN_POINT ( 'NONE',  ( 0.0000000000000000000, 6.500000000000000888, 0.0000000000000000000 ) ) ;
#72 = ADVANCED_FACE ( 'NONE', ( #27, #139 ), #101, .T. ) ;
#73 = CARTESIAN_POINT ( 'NONE',  ( -3.955144087454686142E-30, 6.500000000000000888, -1.132798289211301698E-15 ) ) ;
#74 = COORDINATED_UNIVERSAL_TIME_OFFSET ( 1, 0, .AHEAD. ) ;
#75 = CC_DESIGN_DATE_AND_TIME_ASSIGNMENT ( #89, #22, ( #25 ) ) ;
#76 = APPROVAL_PERSON_ORGANIZATION ( #88, #46, #116 ) ;
#77 = DATE_AND_TIME ( #109, #141 ) ;
#78 = PERSON_AND_ORGANIZATION_ROLE ( 'classification_officer' ) ;
#79 = EDGE_LOOP ( 'NONE', ( #91 ) ) ;
#80 = DIRECTION ( 'NONE',  ( 3.491481338843133355E-15, -1.224646799147353207E-16, 1.000000000000000000 ) ) ;
#81 = AXIS2_PLACEMENT_3D ( 'NONE', #138, #59, #113 ) ;
#82 = PLANE ( 'NONE',  #32 ) ;
#83 = DIRECTION ( 'NONE',  ( 4.275831445896958607E-31, 1.000000000000000000, 1.224646799147353207E-16 ) ) ;
#84 = VERTEX_POINT ( 'NONE', #162 ) ;
#85 =( NAMED_UNIT ( * ) SI_UNIT ( $, .STERADIAN. ) SOLID_ANGLE_UNIT ( ) );
#86 = PRODUCT_DEFINITION_FORMATION_WITH_SPECIFIED_SOURCE ( 'ANY', '', #10, .NOT_KNOWN. ) ;
#87 = CIRCLE ( 'NONE', #1, 6.500000000000000888 ) ;
#88 = PERSON_AND_ORGANIZATION ( #119, #38 ) ;
#89 = DATE_AND_TIME ( #105, #150 ) ;
#90 = AXIS2_PLACEMENT_3D ( 'NONE', #144, #80, #66 ) ;
#91 = ORIENTED_EDGE ( 'NONE', *, *, #67, .T. ) ;
#92 = PERSON_AND_ORGANIZATION ( #119, #38 ) ;
#93 = PLANE ( 'NONE',  #90 ) ;
#94 = DATE_TIME_ROLE ( 'classification_date' ) ;
#95 = ORIENTED_EDGE ( 'NONE', *, *, #68, .F. ) ;
#96 = LOCAL_TIME ( 14, 0, 19.00000000000000000, #155 ) ;
#97 = ORIENTED_EDGE ( 'NONE', *, *, #159, .T. ) ;
#98 = CC_DESIGN_PERSON_AND_ORGANIZATION_ASSIGNMENT ( #92, #117, ( #86 ) ) ;
#99 = APPROVAL_STATUS ( 'not_yet_approved' ) ;
#100 = VERTEX_POINT ( 'NONE', #71 ) ;
#101 = CYLINDRICAL_SURFACE ( 'NONE', #124, 25.00000000000000000 ) ;
#102 = CC_DESIGN_PERSON_AND_ORGANIZATION_ASSIGNMENT ( #54, #110, ( #10 ) ) ;
#103 =( NAMED_UNIT ( * ) PLANE_ANGLE_UNIT ( ) SI_UNIT ( $, .RADIAN. ) );
#104 = APPROVAL_PERSON_ORGANIZATION ( #41, #5, #147 ) ;
#105 = CALENDAR_DATE ( 2021, 6, 12 ) ;
#106 = APPROVAL_PERSON_ORGANIZATION ( #143, #24, #140 ) ;
#107 = SECURITY_CLASSIFICATION_LEVEL ( 'unclassified' ) ;
#108 = FACE_OUTER_BOUND ( 'NONE', #39, .T. ) ;
#109 = CALENDAR_DATE ( 2021, 6, 12 ) ;
#110 = PERSON_AND_ORGANIZATION_ROLE ( 'design_owner' ) ;
#111 = DIRECTION ( 'NONE',  ( -3.491481338843133355E-15, 1.224646799147353207E-16, -1.000000000000000000 ) ) ;
#112 = DIRECTION ( 'NONE',  ( -3.491481338843133355E-15, 1.224646799147353207E-16, -1.000000000000000000 ) ) ;
#113 = DIRECTION ( 'NONE',  ( 1.000000000000000000, 0.0000000000000000000, 0.0000000000000000000 ) ) ;
#114 = AXIS2_PLACEMENT_3D ( 'NONE', #148, #112, #56 ) ;
#115 = PERSON_AND_ORGANIZATION ( #119, #38 ) ;
#116 = APPROVAL_ROLE ( '' ) ;
#117 = PERSON_AND_ORGANIZATION_ROLE ( 'design_supplier' ) ;
#118 = ORIENTED_EDGE ( 'NONE', *, *, #50, .F. ) ;
#119 = PERSON ( 'UNSPECIFIED', 'UNSPECIFIED', 'UNSPECIFIED', ('UNSPECIFIED'), ('UNSPECIFIED'), ('UNSPECIFIED') ) ;
#120 = APPLICATION_CONTEXT ( 'configuration controlled 3d designs of mechanical parts and assemblies' ) ;
#121 = EDGE_LOOP ( 'NONE', ( #95 ) ) ;
#122 = CARTESIAN_POINT ( 'NONE',  ( 0.0000000000000000000, 0.0000000000000000000, 0.0000000000000000000 ) ) ;
#123 = VERTEX_POINT ( 'NONE', #15 ) ;
#124 = AXIS2_PLACEMENT_3D ( 'NONE', #122, #111, #164 ) ;
#125 = CC_DESIGN_DATE_AND_TIME_ASSIGNMENT ( #63, #94, ( #137 ) ) ;
#126 = PERSON_AND_ORGANIZATION ( #119, #38 ) ;
#127 = APPROVAL_DATE_TIME ( #77, #5 ) ;
#128 = COORDINATED_UNIVERSAL_TIME_OFFSET ( 1, 0, .AHEAD. ) ;
#129 = CALENDAR_DATE ( 2021, 6, 12 ) ;
#130 = EDGE_LOOP ( 'NONE', ( #118 ) ) ;
#131 = CYLINDRICAL_SURFACE ( 'NONE', #14, 6.500000000000000888 ) ;
#132 = CIRCLE ( 'NONE', #60, 25.00000000000000000 ) ;
#133 = CC_DESIGN_APPROVAL ( #5, ( #25 ) ) ;
#134 = FACE_OUTER_BOUND ( 'NONE', #53, .T. ) ;
#135 = VERTEX_POINT ( 'NONE', #136 ) ;
#136 = CARTESIAN_POINT ( 'NONE',  ( 5.935518276033325915E-15, 25.00000000000000000, 1.699999999999999956 ) ) ;
#137 = SECURITY_CLASSIFICATION ( '', '', #107 ) ;
#138 = CARTESIAN_POINT ( 'NONE',  ( 0.0000000000000000000, 0.0000000000000000000, 0.0000000000000000000 ) ) ;
#139 = FACE_OUTER_BOUND ( 'NONE', #13, .T. ) ;
#140 = APPROVAL_ROLE ( '' ) ;
#141 = LOCAL_TIME ( 14, 0, 19.00000000000000000, #55 ) ;
#142 = COORDINATED_UNIVERSAL_TIME_OFFSET ( 1, 0, .AHEAD. ) ;
#143 = PERSON_AND_ORGANIZATION ( #119, #38 ) ;
#144 = CARTESIAN_POINT ( 'NONE',  ( 5.935518276033322760E-15, 6.500000000000000000, 1.699999999999998845 ) ) ;
#145 = ORIENTED_EDGE ( 'NONE', *, *, #50, .T. ) ;
#146 = EDGE_LOOP ( 'NONE', ( #145 ) ) ;
#147 = APPROVAL_ROLE ( '' ) ;
#148 = CARTESIAN_POINT ( 'NONE',  ( 5.935518276033323549E-15, -2.081899558550499047E-16, 1.699999999999999067 ) ) ;
#149 = DIRECTION ( 'NONE',  ( 4.275831445896958607E-31, 1.000000000000000000, 1.224646799147353207E-16 ) ) ;
#150 = LOCAL_TIME ( 14, 0, 19.00000000000000000, #74 ) ;
#151 = APPLICATION_CONTEXT ( 'configuration controlled 3d designs of mechanical parts and assemblies' ) ;
#152 = CLOSED_SHELL ( 'NONE', ( #163, #72, #28, #2 ) ) ;
#153 = AXIS2_PLACEMENT_3D ( 'NONE', #42, #70, #83 ) ;
#154 = SHAPE_DEFINITION_REPRESENTATION ( #31, #34 ) ;
#155 = COORDINATED_UNIVERSAL_TIME_OFFSET ( 1, 0, .AHEAD. ) ;
#156 = CC_DESIGN_PERSON_AND_ORGANIZATION_ASSIGNMENT ( #115, #62, ( #86 ) ) ;
#157 = ORIENTED_EDGE ( 'NONE', *, *, #68, .T. ) ;
#158 = FACE_OUTER_BOUND ( 'NONE', #130, .T. ) ;
#159 = EDGE_CURVE ( 'NONE', #123, #123, #43, .T. ) ;
#160 = DIRECTION ( 'NONE',  ( -3.491481338843133355E-15, 1.224646799147353207E-16, -1.000000000000000000 ) ) ;
#161 = APPLICATION_PROTOCOL_DEFINITION ( 'international standard', 'config_control_design', 1994, #120 ) ;
#162 = CARTESIAN_POINT ( 'NONE',  ( 5.935518276033325915E-15, 6.500000000000000000, 1.699999999999999956 ) ) ;
#163 = ADVANCED_FACE ( 'NONE', ( #134, #7 ), #82, .T. ) ;
#164 = DIRECTION ( 'NONE',  ( 4.275831445896958607E-31, 1.000000000000000000, 1.224646799147353207E-16 ) ) ;
#165 = MECHANICAL_CONTEXT ( 'NONE', #151, 'mechanical' ) ;
#166 = PRODUCT_RELATED_PRODUCT_CATEGORY ( 'detail', '', ( #10 ) ) ;
#167 = APPROVAL_DATE_TIME ( #65, #46 ) ;
#168 = CC_DESIGN_PERSON_AND_ORGANIZATION_ASSIGNMENT ( #126, #169, ( #25 ) ) ;
#169 = PERSON_AND_ORGANIZATION_ROLE ( 'creator' ) ;
ENDSEC;
END-ISO-10303-21;
