ISO-10303-21;
HEADER;
FILE_DESCRIPTION (( 'STEP AP203' ),
    '1' );
FILE_NAME ('7958.step',
    '2021-09-03T07:22:47',
    ( '' ),
    ( '' ),
    'SwSTEP 2.0',
    'SolidWorks 2019',
    '' );
FILE_SCHEMA (( 'CONFIG_CONTROL_DESIGN' ));
ENDSEC;

DATA;
#1 = DIRECTION ( 'NONE',  ( 0.0000000000000000000, 1.000000000000000000, 0.0000000000000000000 ) ) ;
#2 = CIRCLE ( 'NONE', #34, 5.000000000000000000 ) ;
#3 = LOCAL_TIME ( 9, 22, 47.00000000000000000, #229 ) ;
#4 = FACE_OUTER_BOUND ( 'NONE', #270, .T. ) ;
#5 = APPROVAL ( #38, 'UNSPECIFIED' ) ;
#6 = DATE_AND_TIME ( #10, #9 ) ;
#7 = AXIS2_PLACEMENT_3D ( 'NONE', #23, #238, #311 ) ;
#8 = DIRECTION ( 'NONE',  ( -3.491481338843133355E-15, 1.224646799147353207E-16, -1.000000000000000000 ) ) ;
#9 = LOCAL_TIME ( 9, 22, 47.00000000000000000, #244 ) ;
#10 = CALENDAR_DATE ( 2021, 3, 9 ) ;
#11 = ORIENTED_EDGE ( 'NONE', *, *, #92, .T. ) ;
#12 = APPROVAL_DATE_TIME ( #224, #5 ) ;
#13 = DIRECTION ( 'NONE',  ( 4.275831445896958607E-31, 1.000000000000000000, 1.224646799147353207E-16 ) ) ;
#14 = CIRCLE ( 'NONE', #203, 4.999999999999992895 ) ;
#15 = LINE ( 'NONE', #300, #70 ) ;
#16 = DIRECTION ( 'NONE',  ( -3.081487911019583933E-31, -1.000000000000000000, -8.673617379884053961E-17 ) ) ;
#17 = ORIENTED_EDGE ( 'NONE', *, *, #285, .F. ) ;
#18 = ORIENTED_EDGE ( 'NONE', *, *, #213, .T. ) ;
#19 = VECTOR ( 'NONE', #21, 1000.000000000000000 ) ;
#20 = ADVANCED_FACE ( 'NONE', ( #324 ), #24, .T. ) ;
#21 = DIRECTION ( 'NONE',  ( -2.468850131082267710E-15, 0.7071067811865470176, -0.7071067811865481278 ) ) ;
#22 = DIRECTION ( 'NONE',  ( 1.903218546456022717E-15, 0.8571673007021097801, 0.5150380749100585964 ) ) ;
#23 = CARTESIAN_POINT ( 'NONE',  ( 1.048946819290239357E-14, -3.679210169129027798E-16, 3.004303095137828450 ) ) ;
#24 = CONICAL_SURFACE ( 'NONE', #315, 4.999999999999989342, 1.029744258676649649 ) ;
#25 = CARTESIAN_POINT ( 'NONE',  ( 1.082359215041371340E-13, 3.749399456654634167E-32, 31.00000000000000000 ) ) ;
#26 = EDGE_CURVE ( 'NONE', #306, #187, #15, .T. ) ;
#27 = ORIENTED_EDGE ( 'NONE', *, *, #115, .F. ) ;
#28 = CARTESIAN_POINT ( 'NONE',  ( 0.0000000000000000000, 0.0000000000000000000, 0.0000000000000000000 ) ) ;
#29 = FACE_OUTER_BOUND ( 'NONE', #328, .T. ) ;
#30 = ADVANCED_FACE ( 'NONE', ( #230 ), #278, .T. ) ;
#31 = CIRCLE ( 'NONE', #7, 4.999999999999989342 ) ;
#32 = APPROVAL_DATE_TIME ( #6, #146 ) ;
#33 = DATE_TIME_ROLE ( 'creation_date' ) ;
#34 = AXIS2_PLACEMENT_3D ( 'NONE', #101, #286, #1 ) ;
#35 = PERSON_AND_ORGANIZATION_ROLE ( 'design_owner' ) ;
#36 = SECURITY_CLASSIFICATION ( '', '', #90 ) ;
#37 = ORIENTED_EDGE ( 'NONE', *, *, #50, .F. ) ;
#38 = APPROVAL_STATUS ( 'not_yet_approved' ) ;
#39 = ORIENTED_EDGE ( 'NONE', *, *, #285, .T. ) ;
#40 = ORIENTED_EDGE ( 'NONE', *, *, #239, .F. ) ;
#41 = AXIS2_PLACEMENT_3D ( 'NONE', #157, #132, #291 ) ;
#42 = CARTESIAN_POINT ( 'NONE',  ( 0.0000000000000000000, 0.0000000000000000000, 0.0000000000000000000 ) ) ;
#43 = VERTEX_POINT ( 'NONE', #193 ) ;
#44 = DIRECTION ( 'NONE',  ( -3.491481338843133355E-15, 1.224646799147353207E-16, -1.000000000000000000 ) ) ;
#45 = DIRECTION ( 'NONE',  ( -3.491481338843133355E-15, 1.224646799147353207E-16, -1.000000000000000000 ) ) ;
#46 = CARTESIAN_POINT ( 'NONE',  ( 1.082359215041371340E-13, 4.999999999999989342, 31.00000000000000000 ) ) ;
#47 = APPLICATION_CONTEXT ( 'configuration controlled 3d designs of mechanical parts and assemblies' ) ;
#48 = DIRECTION ( 'NONE',  ( -2.382254525458719047E-15, -0.7071067811865467956, -0.7071067811865483499 ) ) ;
#49 = MANIFOLD_SOLID_BREP ( 'Corps-Déplacer/Copier1[1]', #149 ) ;
#50 = EDGE_CURVE ( 'NONE', #292, #263, #91, .T. ) ;
#51 = CARTESIAN_POINT ( 'NONE',  ( 1.110179159247607089E-14, 4.999999999999989342, 3.004303095137828894 ) ) ;
#52 = VECTOR ( 'NONE', #293, 1000.000000000000000 ) ;
#53 = ORIENTED_EDGE ( 'NONE', *, *, #222, .T. ) ;
#54 = AXIS2_PLACEMENT_3D ( 'NONE', #269, #113, #109 ) ;
#55 = LINE ( 'NONE', #312, #102 ) ;
#56 = EDGE_LOOP ( 'NONE', ( #185, #53, #256 ) ) ;
#57 =( NAMED_UNIT ( * ) SI_UNIT ( $, .STERADIAN. ) SOLID_ANGLE_UNIT ( ) );
#58 = EDGE_CURVE ( 'NONE', #131, #43, #162, .T. ) ;
#59 = EDGE_LOOP ( 'NONE', ( #210, #237 ) ) ;
#60 = CARTESIAN_POINT ( 'NONE',  ( 2.137915722948475625E-30, 4.999999999999991118, 6.123233995736755436E-16 ) ) ;
#61 = AXIS2_PLACEMENT_3D ( 'NONE', #67, #118, #303 ) ;
#62 = DIRECTION ( 'NONE',  ( 0.0000000000000000000, 1.000000000000000000, 0.0000000000000000000 ) ) ;
#63 = CC_DESIGN_PERSON_AND_ORGANIZATION_ASSIGNMENT ( #218, #135, ( #166 ) ) ;
#64 = PERSON_AND_ORGANIZATION_ROLE ( 'creator' ) ;
#65 = ORIENTED_EDGE ( 'NONE', *, *, #26, .T. ) ;
#66 = ORIENTED_EDGE ( 'NONE', *, *, #207, .T. ) ;
#67 = CARTESIAN_POINT ( 'NONE',  ( 1.082359215041371340E-13, -3.796405077356795115E-15, 31.00000000000000000 ) ) ;
#68 = CC_DESIGN_PERSON_AND_ORGANIZATION_ASSIGNMENT ( #251, #96, ( #36 ) ) ;
#69 = ORIENTED_EDGE ( 'NONE', *, *, #58, .T. ) ;
#70 = VECTOR ( 'NONE', #326, 1000.000000000000000 ) ;
#71 = AXIS2_PLACEMENT_3D ( 'NONE', #87, #319, #159 ) ;
#72 = DIRECTION ( 'NONE',  ( 0.0000000000000000000, 1.000000000000000000, 0.0000000000000000000 ) ) ;
#73 = ORIENTED_EDGE ( 'NONE', *, *, #207, .F. ) ;
#74 = LINE ( 'NONE', #175, #117 ) ;
#75 = DIRECTION ( 'NONE',  ( -3.491481338843133355E-15, 1.224646799147353207E-16, -1.000000000000000000 ) ) ;
#76 = AXIS2_PLACEMENT_3D ( 'NONE', #42, #44, #123 ) ;
#77 = LOCAL_TIME ( 9, 22, 47.00000000000000000, #330 ) ;
#78 = DIRECTION ( 'NONE',  ( 3.081487911019583933E-31, 1.000000000000000000, 8.673617379884053961E-17 ) ) ;
#79 = DIRECTION ( 'NONE',  ( -3.491481338843133355E-15, 1.224646799147353207E-16, -1.000000000000000000 ) ) ;
#80 = ORIENTED_EDGE ( 'NONE', *, *, #250, .F. ) ;
#81 = PRODUCT_DEFINITION_SHAPE ( 'NONE', 'NONE',  #166 ) ;
#82 = PLANE ( 'NONE',  #41 ) ;
#83 = CC_DESIGN_PERSON_AND_ORGANIZATION_ASSIGNMENT ( #296, #64, ( #169 ) ) ;
#84 = DIRECTION ( 'NONE',  ( -3.491481338843133355E-15, 1.224646799147353207E-16, -1.000000000000000000 ) ) ;
#85 = ORIENTED_EDGE ( 'NONE', *, *, #222, .F. ) ;
#86 = MECHANICAL_CONTEXT ( 'NONE', #305, 'mechanical' ) ;
#87 = CARTESIAN_POINT ( 'NONE',  ( 1.048946819290239357E-14, -3.679210169129027798E-16, 3.004303095137828450 ) ) ;
#88 = CARTESIAN_POINT ( 'NONE',  ( 3.107418391570388560E-13, -1.089935651241144239E-14, 89.00000000000000000 ) ) ;
#89 = DATE_AND_TIME ( #320, #133 ) ;
#90 = SECURITY_CLASSIFICATION_LEVEL ( 'unclassified' ) ;
#91 = CIRCLE ( 'NONE', #61, 4.999999999999992895 ) ;
#92 = EDGE_CURVE ( 'NONE', #160, #292, #94, .T. ) ;
#93 = CARTESIAN_POINT ( 'NONE',  ( 3.107418391570388560E-13, -1.089935651241144239E-14, 89.00000000000000000 ) ) ;
#94 = LINE ( 'NONE', #195, #241 ) ;
#95 = EDGE_LOOP ( 'NONE', ( #120, #223, #37, #243 ) ) ;
#96 = PERSON_AND_ORGANIZATION_ROLE ( 'classification_officer' ) ;
#97 = CC_DESIGN_APPROVAL ( #140, ( #169 ) ) ;
#98 = DIRECTION ( 'NONE',  ( -3.491481338843133355E-15, 1.224646799147353207E-16, -1.000000000000000000 ) ) ;
#99 = FACE_OUTER_BOUND ( 'NONE', #59, .T. ) ;
#100 = DIRECTION ( 'NONE',  ( 0.0000000000000000000, 1.000000000000000000, 0.0000000000000000000 ) ) ;
#101 = CARTESIAN_POINT ( 'NONE',  ( 3.072503578181957353E-13, -1.077689183249670724E-14, 88.00000000000000000 ) ) ;
#102 = VECTOR ( 'NONE', #337, 1000.000000000000000 ) ;
#103 = ADVANCED_BREP_SHAPE_REPRESENTATION ( '7958', ( #49, #164, #54 ), #112 ) ;
#104 = DIRECTION ( 'NONE',  ( 4.275831445896959482E-31, 1.000000000000000000, 1.224646799147353454E-16 ) ) ;
#105 = DIRECTION ( 'NONE',  ( 0.0000000000000000000, 1.000000000000000000, 0.0000000000000000000 ) ) ;
#106 = CC_DESIGN_PERSON_AND_ORGANIZATION_ASSIGNMENT ( #245, #35, ( #194 ) ) ;
#107 = CARTESIAN_POINT ( 'NONE',  ( 0.0000000000000000000, 0.0000000000000000000, 0.0000000000000000000 ) ) ;
#108 = EDGE_LOOP ( 'NONE', ( #27, #73 ) ) ;
#109 = DIRECTION ( 'NONE',  ( 1.000000000000000000, 0.0000000000000000000, 0.0000000000000000000 ) ) ;
#110 = APPROVAL_STATUS ( 'not_yet_approved' ) ;
#111 = AXIS2_PLACEMENT_3D ( 'NONE', #325, #281, #72 ) ;
#112 =( GEOMETRIC_REPRESENTATION_CONTEXT ( 3 ) GLOBAL_UNCERTAINTY_ASSIGNED_CONTEXT ( ( #137 ) ) GLOBAL_UNIT_ASSIGNED_CONTEXT ( ( #190, #188, #57 ) ) REPRESENTATION_CONTEXT ( 'NONE', 'WORKASPACE' ) );
#113 = DIRECTION ( 'NONE',  ( 0.0000000000000000000, 0.0000000000000000000, 1.000000000000000000 ) ) ;
#114 = PERSON_AND_ORGANIZATION ( #280, #198 ) ;
#115 = EDGE_CURVE ( 'NONE', #275, #306, #323, .T. ) ;
#116 = ORIENTED_EDGE ( 'NONE', *, *, #250, .T. ) ;
#117 = VECTOR ( 'NONE', #282, 1000.000000000000000 ) ;
#118 = DIRECTION ( 'NONE',  ( -3.491481338843133355E-15, 1.224646799147353207E-16, -1.000000000000000000 ) ) ;
#119 = CALENDAR_DATE ( 2021, 3, 9 ) ;
#120 = ORIENTED_EDGE ( 'NONE', *, *, #227, .T. ) ;
#121 = DIRECTION ( 'NONE',  ( -3.491481338843133355E-15, 1.224646799147353207E-16, -1.000000000000000000 ) ) ;
#122 = AXIS2_PLACEMENT_3D ( 'NONE', #258, #180, #105 ) ;
#123 = DIRECTION ( 'NONE',  ( 4.275831445896958607E-31, 1.000000000000000000, 1.224646799147353207E-16 ) ) ;
#124 = CARTESIAN_POINT ( 'NONE',  ( 3.107418391570388560E-13, -1.089935651241144239E-14, 89.00000000000000000 ) ) ;
#125 = ADVANCED_FACE ( 'NONE', ( #302 ), #277, .T. ) ;
#126 = CARTESIAN_POINT ( 'NONE',  ( 3.112316978766977966E-13, -4.000000000000012434, 89.00000000000000000 ) ) ;
#127 = CARTESIAN_POINT ( 'NONE',  ( 0.0000000000000000000, 0.0000000000000000000, 0.0000000000000000000 ) ) ;
#128 = AXIS2_PLACEMENT_3D ( 'NONE', #151, #84, #262 ) ;
#129 = LINE ( 'NONE', #182, #192 ) ;
#130 = CC_DESIGN_DATE_AND_TIME_ASSIGNMENT ( #299, #271, ( #36 ) ) ;
#131 = VERTEX_POINT ( 'NONE', #148 ) ;
#132 = DIRECTION ( 'NONE',  ( 3.491481338843133355E-15, -1.224646799147353207E-16, 1.000000000000000000 ) ) ;
#133 = LOCAL_TIME ( 9, 22, 47.00000000000000000, #216 ) ;
#134 = ORIENTED_EDGE ( 'NONE', *, *, #115, .T. ) ;
#135 = PERSON_AND_ORGANIZATION_ROLE ( 'creator' ) ;
#136 = APPROVAL_STATUS ( 'not_yet_approved' ) ;
#137 = UNCERTAINTY_MEASURE_WITH_UNIT (LENGTH_MEASURE( 1.000000000000000082E-05 ), #190, 'distance_accuracy_value', 'NONE');
#138 = AXIS2_PLACEMENT_3D ( 'NONE', #93, #121, #143 ) ;
#139 = APPROVAL_ROLE ( '' ) ;
#140 = APPROVAL ( #110, 'UNSPECIFIED' ) ;
#141 = SHAPE_DEFINITION_REPRESENTATION ( #81, #103 ) ;
#142 = CARTESIAN_POINT ( 'NONE',  ( 3.072503578181957353E-13, 4.999999999999989342, 88.00000000000000000 ) ) ;
#143 = DIRECTION ( 'NONE',  ( 0.0000000000000000000, 1.000000000000000000, 0.0000000000000000000 ) ) ;
#144 = CLOSED_SHELL ( 'NONE', ( #125, #20, #321, #247, #297 ) ) ;
#145 = CARTESIAN_POINT ( 'NONE',  ( 2.083554630607399652E-13, -5.000000000000010658, 88.00000000000000000 ) ) ;
#146 = APPROVAL ( #136, 'UNSPECIFIED' ) ;
#147 = VERTEX_POINT ( 'NONE', #145 ) ;
#148 = CARTESIAN_POINT ( 'NONE',  ( 3.095471895472336164E-13, -4.000000000000012434, 89.00000000000000000 ) ) ;
#149 = CLOSED_SHELL ( 'NONE', ( #30, #289, #318, #176, #332, #152 ) ) ;
#150 = APPROVAL_PERSON_ORGANIZATION ( #246, #140, #214 ) ;
#151 = CARTESIAN_POINT ( 'NONE',  ( 1.082359215041371340E-13, -3.796405077356795115E-15, 31.00000000000000000 ) ) ;
#152 = ADVANCED_FACE ( 'NONE', ( #99 ), #253, .F. ) ;
#153 = DIRECTION ( 'NONE',  ( -4.275831445896958607E-31, -1.000000000000000000, -1.224646799147353207E-16 ) ) ;
#154 = FACE_OUTER_BOUND ( 'NONE', #181, .T. ) ;
#155 = CYLINDRICAL_SURFACE ( 'NONE', #329, 4.999999999999996447 ) ;
#156 = AXIS2_PLACEMENT_3D ( 'NONE', #88, #8, #62 ) ;
#157 = CARTESIAN_POINT ( 'NONE',  ( 1.082359215041371340E-13, 3.749399456654634167E-32, 31.00000000000000000 ) ) ;
#158 = EDGE_CURVE ( 'NONE', #147, #263, #74, .T. ) ;
#159 = DIRECTION ( 'NONE',  ( -3.081487911019583933E-31, -1.000000000000000000, -8.673617379884053961E-17 ) ) ;
#160 = VERTEX_POINT ( 'NONE', #142 ) ;
#161 = APPLICATION_PROTOCOL_DEFINITION ( 'international standard', 'config_control_design', 1994, #47 ) ;
#162 = CIRCLE ( 'NONE', #111, 4.000000000000000888 ) ;
#163 = DATE_AND_TIME ( #266, #248 ) ;
#164 = MANIFOLD_SOLID_BREP ( 'Corps-Déplacer/Copier1[2]', #144 ) ;
#165 = APPLICATION_PROTOCOL_DEFINITION ( 'international standard', 'config_control_design', 1994, #305 ) ;
#166 = PRODUCT_DEFINITION ( 'UNKNOWN', '', #169, #167 ) ;
#167 = DESIGN_CONTEXT ( 'detailed design', #47, 'design' ) ;
#168 = AXIS2_PLACEMENT_3D ( 'NONE', #201, #307, #13 ) ;
#169 = PRODUCT_DEFINITION_FORMATION_WITH_SPECIFIED_SOURCE ( 'ANY', '', #194, .NOT_KNOWN. ) ;
#170 = ORIENTED_EDGE ( 'NONE', *, *, #309, .T. ) ;
#171 = ORIENTED_EDGE ( 'NONE', *, *, #26, .F. ) ;
#172 = CARTESIAN_POINT ( 'NONE',  ( 1.048946819290239357E-14, -3.679210169129027798E-16, 3.004303095137828450 ) ) ;
#173 = VERTEX_POINT ( 'NONE', #51 ) ;
#174 = DIRECTION ( 'NONE',  ( 3.491481338843133355E-15, -1.224646799147353207E-16, 1.000000000000000000 ) ) ;
#175 = CARTESIAN_POINT ( 'NONE',  ( 6.123233995736740644E-16, -4.999999999999996447, -6.123233995736783046E-16 ) ) ;
#176 = ADVANCED_FACE ( 'NONE', ( #308 ), #155, .T. ) ;
#177 = APPROVAL_PERSON_ORGANIZATION ( #274, #5, #276 ) ;
#178 = PLANE ( 'NONE',  #197 ) ;
#179 = CARTESIAN_POINT ( 'NONE',  ( 1.048946819290239357E-14, -3.679210169129027798E-16, 3.004303095137828450 ) ) ;
#180 = DIRECTION ( 'NONE',  ( -3.491481338843133355E-15, 1.224646799147353207E-16, -1.000000000000000000 ) ) ;
#181 = EDGE_LOOP ( 'NONE', ( #171, #66, #272, #331 ) ) ;
#182 = CARTESIAN_POINT ( 'NONE',  ( 1.110179159247607089E-14, 4.999999999999989342, 3.004303095137828894 ) ) ;
#183 = AXIS2_PLACEMENT_3D ( 'NONE', #179, #316, #78 ) ;
#184 = CC_DESIGN_APPROVAL ( #146, ( #166 ) ) ;
#185 = ORIENTED_EDGE ( 'NONE', *, *, #309, .F. ) ;
#186 = DIRECTION ( 'NONE',  ( 4.275831445896958607E-31, 1.000000000000000000, 1.224646799147353207E-16 ) ) ;
#187 = VERTEX_POINT ( 'NONE', #211 ) ;
#188 =( NAMED_UNIT ( * ) PLANE_ANGLE_UNIT ( ) SI_UNIT ( $, .RADIAN. ) );
#189 = EDGE_CURVE ( 'NONE', #173, #187, #257, .T. ) ;
#190 =( LENGTH_UNIT ( ) NAMED_UNIT ( * ) SI_UNIT ( .MILLI., .METRE. ) );
#191 = APPROVAL_DATE_TIME ( #89, #140 ) ;
#192 = VECTOR ( 'NONE', #22, 999.9999999999998863 ) ;
#193 = CARTESIAN_POINT ( 'NONE',  ( 3.107418391570388560E-13, 3.999999999999989786, 89.00000000000000000 ) ) ;
#194 = PRODUCT ( '7958', '7958', '', ( #86 ) ) ;
#195 = CARTESIAN_POINT ( 'NONE',  ( 2.137915722948478077E-30, 4.999999999999996447, 6.123233995736762338E-16 ) ) ;
#196 = EDGE_LOOP ( 'NONE', ( #254, #208, #317, #288 ) ) ;
#197 = AXIS2_PLACEMENT_3D ( 'NONE', #25, #236, #153 ) ;
#198 = ORGANIZATION ( 'UNSPECIFIED', 'UNSPECIFIED', '' ) ;
#199 = DIRECTION ( 'NONE',  ( 0.0000000000000000000, 1.000000000000000000, 0.0000000000000000000 ) ) ;
#200 = CC_DESIGN_DATE_AND_TIME_ASSIGNMENT ( #163, #33, ( #166 ) ) ;
#201 = CARTESIAN_POINT ( 'NONE',  ( 3.107418391570388560E-13, 2.999519565323699342E-32, 89.00000000000000000 ) ) ;
#202 = DIRECTION ( 'NONE',  ( -3.491481338843133355E-15, 1.224646799147353207E-16, -1.000000000000000000 ) ) ;
#203 = AXIS2_PLACEMENT_3D ( 'NONE', #232, #333, #206 ) ;
#204 = CC_DESIGN_SECURITY_CLASSIFICATION ( #36, ( #169 ) ) ;
#205 = CYLINDRICAL_SURFACE ( 'NONE', #335, 4.999999999999991118 ) ;
#206 = DIRECTION ( 'NONE',  ( 0.0000000000000000000, 1.000000000000000000, 0.0000000000000000000 ) ) ;
#207 = EDGE_CURVE ( 'NONE', #306, #275, #233, .T. ) ;
#208 = ORIENTED_EDGE ( 'NONE', *, *, #239, .T. ) ;
#209 = FACE_OUTER_BOUND ( 'NONE', #235, .T. ) ;
#210 = ORIENTED_EDGE ( 'NONE', *, *, #265, .F. ) ;
#211 = CARTESIAN_POINT ( 'NONE',  ( 1.048946819290239199E-14, -4.999999999999989342, 3.004303095137828006 ) ) ;
#212 = VERTEX_POINT ( 'NONE', #28 ) ;
#213 = EDGE_CURVE ( 'NONE', #43, #160, #290, .T. ) ;
#214 = APPROVAL_ROLE ( '' ) ;
#215 = CONICAL_SURFACE ( 'NONE', #71, 4.999999999999989342, 1.029744258676649649 ) ;
#216 = COORDINATED_UNIVERSAL_TIME_OFFSET ( 1, 0, .AHEAD. ) ;
#217 = EDGE_LOOP ( 'NONE', ( #279, #116, #11, #17 ) ) ;
#218 = PERSON_AND_ORGANIZATION ( #280, #198 ) ;
#219 = ORIENTED_EDGE ( 'NONE', *, *, #189, .F. ) ;
#220 = ORIENTED_EDGE ( 'NONE', *, *, #50, .T. ) ;
#221 = CIRCLE ( 'NONE', #228, 4.000000000000000888 ) ;
#222 = EDGE_CURVE ( 'NONE', #212, #173, #129, .T. ) ;
#223 = ORIENTED_EDGE ( 'NONE', *, *, #158, .T. ) ;
#224 = DATE_AND_TIME ( #301, #77 ) ;
#225 = CARTESIAN_POINT ( 'NONE',  ( 1.082359215041371340E-13, -3.796405077356795115E-15, 31.00000000000000000 ) ) ;
#226 = EDGE_LOOP ( 'NONE', ( #134, #65, #219, #314 ) ) ;
#227 = EDGE_CURVE ( 'NONE', #160, #147, #2, .T. ) ;
#228 = AXIS2_PLACEMENT_3D ( 'NONE', #124, #79, #100 ) ;
#229 = COORDINATED_UNIVERSAL_TIME_OFFSET ( 1, 0, .AHEAD. ) ;
#230 = FACE_OUTER_BOUND ( 'NONE', #196, .T. ) ;
#231 = CARTESIAN_POINT ( 'NONE',  ( 1.082359215041371340E-13, 4.999999999999989342, 31.00000000000000000 ) ) ;
#232 = CARTESIAN_POINT ( 'NONE',  ( 1.082359215041371340E-13, -3.796405077356795115E-15, 31.00000000000000000 ) ) ;
#233 = CIRCLE ( 'NONE', #128, 4.999999999999992895 ) ;
#234 = FACE_OUTER_BOUND ( 'NONE', #95, .T. ) ;
#235 = EDGE_LOOP ( 'NONE', ( #220, #39 ) ) ;
#236 = DIRECTION ( 'NONE',  ( 3.491481338843133355E-15, -1.224646799147353207E-16, 1.000000000000000000 ) ) ;
#237 = ORIENTED_EDGE ( 'NONE', *, *, #58, .F. ) ;
#238 = DIRECTION ( 'NONE',  ( -3.491481338843133355E-15, 1.224646799147353207E-16, -1.000000000000000000 ) ) ;
#239 = EDGE_CURVE ( 'NONE', #131, #147, #313, .T. ) ;
#240 = LINE ( 'NONE', #60, #52 ) ;
#241 = VECTOR ( 'NONE', #98, 1000.000000000000000 ) ;
#242 = CC_DESIGN_APPROVAL ( #5, ( #36 ) ) ;
#243 = ORIENTED_EDGE ( 'NONE', *, *, #92, .F. ) ;
#244 = COORDINATED_UNIVERSAL_TIME_OFFSET ( 1, 0, .AHEAD. ) ;
#245 = PERSON_AND_ORGANIZATION ( #280, #198 ) ;
#246 = PERSON_AND_ORGANIZATION ( #280, #198 ) ;
#247 = ADVANCED_FACE ( 'NONE', ( #154 ), #205, .T. ) ;
#248 = LOCAL_TIME ( 9, 22, 47.00000000000000000, #294 ) ;
#249 = DIRECTION ( 'NONE',  ( -3.491481338843133355E-15, 1.224646799147353207E-16, -1.000000000000000000 ) ) ;
#250 = EDGE_CURVE ( 'NONE', #147, #160, #283, .T. ) ;
#251 = PERSON_AND_ORGANIZATION ( #280, #198 ) ;
#252 = ORIENTED_EDGE ( 'NONE', *, *, #260, .T. ) ;
#253 = PLANE ( 'NONE',  #168 ) ;
#254 = ORIENTED_EDGE ( 'NONE', *, *, #265, .T. ) ;
#255 = PRODUCT_RELATED_PRODUCT_CATEGORY ( 'detail', '', ( #194 ) ) ;
#256 = ORIENTED_EDGE ( 'NONE', *, *, #189, .T. ) ;
#257 = CIRCLE ( 'NONE', #183, 4.999999999999989342 ) ;
#258 = CARTESIAN_POINT ( 'NONE',  ( 3.072503578181957353E-13, -1.077689183249670724E-14, 88.00000000000000000 ) ) ;
#259 = CARTESIAN_POINT ( 'NONE',  ( 5.997501824809341113E-14, -4.999999999999996447, 31.00000000000000000 ) ) ;
#260 = EDGE_CURVE ( 'NONE', #187, #173, #31, .T. ) ;
#261 = DIRECTION ( 'NONE',  ( 4.275831445896959482E-31, 1.000000000000000000, 1.224646799147353454E-16 ) ) ;
#262 = DIRECTION ( 'NONE',  ( 0.0000000000000000000, 1.000000000000000000, 0.0000000000000000000 ) ) ;
#263 = VERTEX_POINT ( 'NONE', #284 ) ;
#264 = CARTESIAN_POINT ( 'NONE',  ( 3.107418391570388560E-13, 3.999999999999989786, 89.00000000000000000 ) ) ;
#265 = EDGE_CURVE ( 'NONE', #43, #131, #221, .T. ) ;
#266 = CALENDAR_DATE ( 2021, 3, 9 ) ;
#267 = PERSON_AND_ORGANIZATION ( #280, #198 ) ;
#268 = AXIS2_PLACEMENT_3D ( 'NONE', #225, #249, #199 ) ;
#269 = CARTESIAN_POINT ( 'NONE',  ( 0.0000000000000000000, 0.0000000000000000000, 0.0000000000000000000 ) ) ;
#270 = EDGE_LOOP ( 'NONE', ( #85, #170, #252 ) ) ;
#271 = DATE_TIME_ROLE ( 'classification_date' ) ;
#272 = ORIENTED_EDGE ( 'NONE', *, *, #327, .T. ) ;
#273 = CC_DESIGN_PERSON_AND_ORGANIZATION_ASSIGNMENT ( #114, #322, ( #169 ) ) ;
#274 = PERSON_AND_ORGANIZATION ( #280, #198 ) ;
#275 = VERTEX_POINT ( 'NONE', #231 ) ;
#276 = APPROVAL_ROLE ( '' ) ;
#277 = CYLINDRICAL_SURFACE ( 'NONE', #76, 4.999999999999991118 ) ;
#278 = CONICAL_SURFACE ( 'NONE', #138, 4.000000000000000888, 0.7853981633974473908 ) ;
#279 = ORIENTED_EDGE ( 'NONE', *, *, #158, .F. ) ;
#280 = PERSON ( 'UNSPECIFIED', 'UNSPECIFIED', 'UNSPECIFIED', ('UNSPECIFIED'), ('UNSPECIFIED'), ('UNSPECIFIED') ) ;
#281 = DIRECTION ( 'NONE',  ( -3.491481338843133355E-15, 1.224646799147353207E-16, -1.000000000000000000 ) ) ;
#282 = DIRECTION ( 'NONE',  ( -3.491481338843133355E-15, 1.224646799147353207E-16, -1.000000000000000000 ) ) ;
#283 = CIRCLE ( 'NONE', #122, 5.000000000000000000 ) ;
#284 = CARTESIAN_POINT ( 'NONE',  ( 2.083554630607400662E-13, -4.999999999999996447, 31.00000000000000000 ) ) ;
#285 = EDGE_CURVE ( 'NONE', #263, #292, #14, .T. ) ;
#286 = DIRECTION ( 'NONE',  ( -3.491481338843133355E-15, 1.224646799147353207E-16, -1.000000000000000000 ) ) ;
#287 = CARTESIAN_POINT ( 'NONE',  ( 0.0000000000000000000, 0.0000000000000000000, 0.0000000000000000000 ) ) ;
#288 = ORIENTED_EDGE ( 'NONE', *, *, #213, .F. ) ;
#289 = ADVANCED_FACE ( 'NONE', ( #234 ), #336, .T. ) ;
#290 = LINE ( 'NONE', #264, #19 ) ;
#291 = DIRECTION ( 'NONE',  ( -4.275831445896958607E-31, -1.000000000000000000, -1.224646799147353207E-16 ) ) ;
#292 = VERTEX_POINT ( 'NONE', #46 ) ;
#293 = DIRECTION ( 'NONE',  ( -3.491481338843133355E-15, 1.224646799147353207E-16, -1.000000000000000000 ) ) ;
#294 = COORDINATED_UNIVERSAL_TIME_OFFSET ( 1, 0, .AHEAD. ) ;
#295 = AXIS2_PLACEMENT_3D ( 'NONE', #107, #202, #104 ) ;
#296 = PERSON_AND_ORGANIZATION ( #280, #198 ) ;
#297 = ADVANCED_FACE ( 'NONE', ( #334 ), #178, .T. ) ;
#298 = APPROVAL_PERSON_ORGANIZATION ( #267, #146, #139 ) ;
#299 = DATE_AND_TIME ( #119, #3 ) ;
#300 = CARTESIAN_POINT ( 'NONE',  ( 6.123233995736733742E-16, -4.999999999999991118, -6.123233995736776143E-16 ) ) ;
#301 = CALENDAR_DATE ( 2021, 3, 9 ) ;
#302 = FACE_OUTER_BOUND ( 'NONE', #226, .T. ) ;
#303 = DIRECTION ( 'NONE',  ( 0.0000000000000000000, 1.000000000000000000, 0.0000000000000000000 ) ) ;
#304 = CONICAL_SURFACE ( 'NONE', #156, 4.000000000000000888, 0.7853981633974473908 ) ;
#305 = APPLICATION_CONTEXT ( 'configuration controlled 3d designs of mechanical parts and assemblies' ) ;
#306 = VERTEX_POINT ( 'NONE', #259 ) ;
#307 = DIRECTION ( 'NONE',  ( -3.491481338843133355E-15, 1.224646799147353207E-16, -1.000000000000000000 ) ) ;
#308 = FACE_OUTER_BOUND ( 'NONE', #217, .T. ) ;
#309 = EDGE_CURVE ( 'NONE', #212, #187, #55, .T. ) ;
#310 = VECTOR ( 'NONE', #48, 1000.000000000000000 ) ;
#311 = DIRECTION ( 'NONE',  ( 3.081487911019583933E-31, 1.000000000000000000, 8.673617379884053961E-17 ) ) ;
#312 = CARTESIAN_POINT ( 'NONE',  ( 1.048946819290239199E-14, -4.999999999999989342, 3.004303095137828006 ) ) ;
#313 = LINE ( 'NONE', #126, #310 ) ;
#314 = ORIENTED_EDGE ( 'NONE', *, *, #327, .F. ) ;
#315 = AXIS2_PLACEMENT_3D ( 'NONE', #172, #174, #16 ) ;
#316 = DIRECTION ( 'NONE',  ( -3.491481338843133355E-15, 1.224646799147353207E-16, -1.000000000000000000 ) ) ;
#317 = ORIENTED_EDGE ( 'NONE', *, *, #227, .F. ) ;
#318 = ADVANCED_FACE ( 'NONE', ( #209 ), #82, .F. ) ;
#319 = DIRECTION ( 'NONE',  ( 3.491481338843133355E-15, -1.224646799147353207E-16, 1.000000000000000000 ) ) ;
#320 = CALENDAR_DATE ( 2021, 3, 9 ) ;
#321 = ADVANCED_FACE ( 'NONE', ( #4 ), #215, .T. ) ;
#322 = PERSON_AND_ORGANIZATION_ROLE ( 'design_supplier' ) ;
#323 = CIRCLE ( 'NONE', #268, 4.999999999999992895 ) ;
#324 = FACE_OUTER_BOUND ( 'NONE', #56, .T. ) ;
#325 = CARTESIAN_POINT ( 'NONE',  ( 3.107418391570388560E-13, -1.089935651241144239E-14, 89.00000000000000000 ) ) ;
#326 = DIRECTION ( 'NONE',  ( -3.491481338843133355E-15, 1.224646799147353207E-16, -1.000000000000000000 ) ) ;
#327 = EDGE_CURVE ( 'NONE', #275, #173, #240, .T. ) ;
#328 = EDGE_LOOP ( 'NONE', ( #40, #69, #18, #80 ) ) ;
#329 = AXIS2_PLACEMENT_3D ( 'NONE', #287, #45, #261 ) ;
#330 = COORDINATED_UNIVERSAL_TIME_OFFSET ( 1, 0, .AHEAD. ) ;
#331 = ORIENTED_EDGE ( 'NONE', *, *, #260, .F. ) ;
#332 = ADVANCED_FACE ( 'NONE', ( #29 ), #304, .T. ) ;
#333 = DIRECTION ( 'NONE',  ( -3.491481338843133355E-15, 1.224646799147353207E-16, -1.000000000000000000 ) ) ;
#334 = FACE_OUTER_BOUND ( 'NONE', #108, .T. ) ;
#335 = AXIS2_PLACEMENT_3D ( 'NONE', #127, #75, #186 ) ;
#336 = CYLINDRICAL_SURFACE ( 'NONE', #295, 4.999999999999996447 ) ;
#337 = DIRECTION ( 'NONE',  ( 1.798245827342160317E-15, -0.8571673007021098911, 0.5150380749100582634 ) ) ;
ENDSEC;
END-ISO-10303-21;
