ISO-10303-21;
HEADER;
FILE_DESCRIPTION (( 'STEP AP203' ),
    '1' );
FILE_NAME ('711.step',
    '2021-11-15T15:37:02',
    ( '' ),
    ( '' ),
    'SwSTEP 2.0',
    'SolidWorks 2019',
    '' );
FILE_SCHEMA (( 'CONFIG_CONTROL_DESIGN' ));
ENDSEC;

DATA;
#1 = APPROVAL_STATUS ( 'not_yet_approved' ) ;
#2 = DIRECTION ( 'NONE',  ( 4.275831445896958607E-31, 1.000000000000000000, 1.224646799147353207E-16 ) ) ;
#3 = APPROVAL ( #37, 'UNSPECIFIED' ) ;
#4 = DIRECTION ( 'NONE',  ( 4.275831445896958607E-31, 1.000000000000000000, 1.224646799147353207E-16 ) ) ;
#5 =( NAMED_UNIT ( * ) SI_UNIT ( $, .STERADIAN. ) SOLID_ANGLE_UNIT ( ) );
#6 = ORIENTED_EDGE ( 'NONE', *, *, #127, .T. ) ;
#7 = DIRECTION ( 'NONE',  ( 0.0000000000000000000, 0.0000000000000000000, 1.000000000000000000 ) ) ;
#8 = ORIENTED_EDGE ( 'NONE', *, *, #143, .F. ) ;
#9 = APPROVAL_PERSON_ORGANIZATION ( #56, #140, #39 ) ;
#10 = FACE_OUTER_BOUND ( 'NONE', #197, .T. ) ;
#11 = CALENDAR_DATE ( 2021, 15, 11 ) ;
#12 = ADVANCED_FACE ( 'NONE', ( #38 ), #100, .F. ) ;
#13 = DATE_AND_TIME ( #11, #172 ) ;
#14 = CALENDAR_DATE ( 2021, 15, 11 ) ;
#15 = CC_DESIGN_APPROVAL ( #103, ( #90 ) ) ;
#16 = CC_DESIGN_PERSON_AND_ORGANIZATION_ASSIGNMENT ( #32, #77, ( #90 ) ) ;
#17 = AXIS2_PLACEMENT_3D ( 'NONE', #107, #121, #171 ) ;
#18 =( LENGTH_UNIT ( ) NAMED_UNIT ( * ) SI_UNIT ( .MILLI., .METRE. ) );
#19 = CC_DESIGN_SECURITY_CLASSIFICATION ( #90, ( #180 ) ) ;
#20 = VERTEX_POINT ( 'NONE', #165 ) ;
#21 = CARTESIAN_POINT ( 'NONE',  ( 0.0000000000000000000, 0.0000000000000000000, 0.0000000000000000000 ) ) ;
#22 = FACE_BOUND ( 'NONE', #170, .T. ) ;
#23 = EDGE_LOOP ( 'NONE', ( #57 ) ) ;
#24 = VERTEX_POINT ( 'NONE', #198 ) ;
#25 = CARTESIAN_POINT ( 'NONE',  ( 0.0000000000000000000, 0.0000000000000000000, 0.0000000000000000000 ) ) ;
#26 = FACE_OUTER_BOUND ( 'NONE', #76, .T. ) ;
#27 = ORIENTED_EDGE ( 'NONE', *, *, #174, .T. ) ;
#28 = PERSON_AND_ORGANIZATION_ROLE ( 'creator' ) ;
#29 = CC_DESIGN_PERSON_AND_ORGANIZATION_ASSIGNMENT ( #73, #162, ( #72 ) ) ;
#30 = SHAPE_DEFINITION_REPRESENTATION ( #195, #176 ) ;
#31 = COORDINATED_UNIVERSAL_TIME_OFFSET ( 1, 0, .AHEAD. ) ;
#32 = PERSON_AND_ORGANIZATION ( #68, #189 ) ;
#33 = ADVANCED_FACE ( 'NONE', ( #26 ), #102, .T. ) ;
#34 = APPROVAL_PERSON_ORGANIZATION ( #138, #103, #173 ) ;
#35 = COORDINATED_UNIVERSAL_TIME_OFFSET ( 1, 0, .AHEAD. ) ;
#36 = CONICAL_SURFACE ( 'NONE', #154, 2.000000000000000888, 0.7853981633974526089 ) ;
#37 = APPROVAL_STATUS ( 'not_yet_approved' ) ;
#38 = FACE_OUTER_BOUND ( 'NONE', #86, .T. ) ;
#39 = APPROVAL_ROLE ( '' ) ;
#40 = DIRECTION ( 'NONE',  ( -3.491481338843133355E-15, 1.224646799147353207E-16, -1.000000000000000000 ) ) ;
#41 = DIRECTION ( 'NONE',  ( -3.491481338843133355E-15, 1.224646799147353207E-16, -1.000000000000000000 ) ) ;
#42 = ORIENTED_EDGE ( 'NONE', *, *, #149, .T. ) ;
#43 = PERSON_AND_ORGANIZATION_ROLE ( 'creator' ) ;
#44 = MANIFOLD_SOLID_BREP ( 'Corps-Déplacer/Copier1[2]', #126 ) ;
#45 = MANIFOLD_SOLID_BREP ( 'Corps-Déplacer/Copier1[1]', #167 ) ;
#46 = DIRECTION ( 'NONE',  ( 0.0000000000000000000, 1.000000000000000000, 0.0000000000000000000 ) ) ;
#47 = APPROVAL_DATE_TIME ( #125, #103 ) ;
#48 = CC_DESIGN_PERSON_AND_ORGANIZATION_ASSIGNMENT ( #132, #43, ( #83 ) ) ;
#49 = DATE_AND_TIME ( #135, #145 ) ;
#50 = MECHANICAL_CONTEXT ( 'NONE', #87, 'mechanical' ) ;
#51 = APPROVAL_STATUS ( 'not_yet_approved' ) ;
#52 = EDGE_LOOP ( 'NONE', ( #105 ) ) ;
#53 = CARTESIAN_POINT ( 'NONE',  ( 0.0000000000000000000, 0.0000000000000000000, 0.0000000000000000000 ) ) ;
#54 = CC_DESIGN_PERSON_AND_ORGANIZATION_ASSIGNMENT ( #62, #80, ( #180 ) ) ;
#55 = DIRECTION ( 'NONE',  ( 4.275831445896958607E-31, 1.000000000000000000, 1.224646799147353207E-16 ) ) ;
#56 = PERSON_AND_ORGANIZATION ( #68, #189 ) ;
#57 = ORIENTED_EDGE ( 'NONE', *, *, #143, .T. ) ;
#58 = AXIS2_PLACEMENT_3D ( 'NONE', #98, #59, #120 ) ;
#59 = DIRECTION ( 'NONE',  ( -3.491481338843133355E-15, 1.224646799147353207E-16, -1.000000000000000000 ) ) ;
#60 = LOCAL_TIME ( 16, 37, 2.000000000000000000, #152 ) ;
#61 = CARTESIAN_POINT ( 'NONE',  ( -8.551662891793915461E-31, 2.999519565323715216E-32, -2.449293598294706414E-16 ) ) ;
#62 = PERSON_AND_ORGANIZATION ( #68, #189 ) ;
#63 = CALENDAR_DATE ( 2021, 15, 11 ) ;
#64 = CC_DESIGN_DATE_AND_TIME_ASSIGNMENT ( #13, #157, ( #90 ) ) ;
#65 = CIRCLE ( 'NONE', #188, 1.599999999999999867 ) ;
#66 = AXIS2_PLACEMENT_3D ( 'NONE', #53, #7, #177 ) ;
#67 = PLANE ( 'NONE',  #193 ) ;
#68 = PERSON ( 'UNSPECIFIED', 'UNSPECIFIED', 'UNSPECIFIED', ('UNSPECIFIED'), ('UNSPECIFIED'), ('UNSPECIFIED') ) ;
#69 = CARTESIAN_POINT ( 'NONE',  ( 1.710569414459005214E-46, 2.000000000000000000, 0.0000000000000000000 ) ) ;
#70 = DIRECTION ( 'NONE',  ( 4.275831445896958607E-31, 1.000000000000000000, 1.224646799147353207E-16 ) ) ;
#71 = AXIS2_PLACEMENT_3D ( 'NONE', #74, #153, #151 ) ;
#72 = PRODUCT ( '711', '711', '', ( #50 ) ) ;
#73 = PERSON_AND_ORGANIZATION ( #68, #189 ) ;
#74 = CARTESIAN_POINT ( 'NONE',  ( 4.189777606611760026E-14, 1.499759782661855966E-32, 12.00000000000000000 ) ) ;
#75 = COORDINATED_UNIVERSAL_TIME_OFFSET ( 1, 0, .AHEAD. ) ;
#76 = EDGE_LOOP ( 'NONE', ( #27 ) ) ;
#77 = PERSON_AND_ORGANIZATION_ROLE ( 'classification_officer' ) ;
#78 = AXIS2_PLACEMENT_3D ( 'NONE', #61, #168, #4 ) ;
#79 = EDGE_LOOP ( 'NONE', ( #42 ) ) ;
#80 = PERSON_AND_ORGANIZATION_ROLE ( 'design_supplier' ) ;
#81 = ADVANCED_FACE ( 'NONE', ( #88 ), #115, .T. ) ;
#82 = CARTESIAN_POINT ( 'NONE',  ( 1.745740669421566678E-13, -6.123233995736766085E-15, 50.00000000000000000 ) ) ;
#83 = PRODUCT_DEFINITION ( 'UNKNOWN', '', #180, #156 ) ;
#84 = APPROVAL_DATE_TIME ( #186, #140 ) ;
#85 = DIRECTION ( 'NONE',  ( 4.275831445896958607E-31, 1.000000000000000000, 1.224646799147353207E-16 ) ) ;
#86 = EDGE_LOOP ( 'NONE', ( #131 ) ) ;
#87 = APPLICATION_CONTEXT ( 'configuration controlled 3d designs of mechanical parts and assemblies' ) ;
#88 = FACE_OUTER_BOUND ( 'NONE', #52, .T. ) ;
#89 = FACE_OUTER_BOUND ( 'NONE', #119, .T. ) ;
#90 = SECURITY_CLASSIFICATION ( '', '', #192 ) ;
#91 = COORDINATED_UNIVERSAL_TIME_OFFSET ( 1, 0, .AHEAD. ) ;
#92 = ADVANCED_FACE ( 'NONE', ( #89, #10 ), #183, .T. ) ;
#93 = APPROVAL_ROLE ( '' ) ;
#94 = CIRCLE ( 'NONE', #203, 2.000000000000000888 ) ;
#95 = APPROVAL_PERSON_ORGANIZATION ( #96, #3, #93 ) ;
#96 = PERSON_AND_ORGANIZATION ( #68, #189 ) ;
#97 =( NAMED_UNIT ( * ) PLANE_ANGLE_UNIT ( ) SI_UNIT ( $, .RADIAN. ) );
#98 = CARTESIAN_POINT ( 'NONE',  ( 4.189777606611760026E-14, -1.469576158976823947E-15, 12.00000000000000000 ) ) ;
#99 = FACE_OUTER_BOUND ( 'NONE', #79, .T. ) ;
#100 = PLANE ( 'NONE',  #137 ) ;
#101 = CARTESIAN_POINT ( 'NONE',  ( 1.745740669421566678E-13, 1.599999999999993872, 50.00000000000000000 ) ) ;
#102 = PLANE ( 'NONE',  #144 ) ;
#103 = APPROVAL ( #1, 'UNSPECIFIED' ) ;
#104 = DIRECTION ( 'NONE',  ( 0.0000000000000000000, 1.000000000000000000, 0.0000000000000000000 ) ) ;
#105 = ORIENTED_EDGE ( 'NONE', *, *, #111, .F. ) ;
#106 = APPROVAL_DATE_TIME ( #155, #3 ) ;
#107 = CARTESIAN_POINT ( 'NONE',  ( 4.189777606611760026E-14, -1.469576158976823947E-15, 12.00000000000000000 ) ) ;
#108 = CIRCLE ( 'NONE', #58, 2.000000000000000000 ) ;
#109 = CC_DESIGN_DATE_AND_TIME_ASSIGNMENT ( #49, #112, ( #83 ) ) ;
#110 =( GEOMETRIC_REPRESENTATION_CONTEXT ( 3 ) GLOBAL_UNCERTAINTY_ASSIGNED_CONTEXT ( ( #123 ) ) GLOBAL_UNIT_ASSIGNED_CONTEXT ( ( #18, #97, #5 ) ) REPRESENTATION_CONTEXT ( 'NONE', 'WORKASPACE' ) );
#111 = EDGE_CURVE ( 'NONE', #130, #130, #108, .T. ) ;
#112 = DATE_TIME_ROLE ( 'creation_date' ) ;
#113 = DIRECTION ( 'NONE',  ( -4.275831445896958607E-31, -1.000000000000000000, -1.224646799147353207E-16 ) ) ;
#114 = DIRECTION ( 'NONE',  ( 3.491481338843133355E-15, -1.224646799147353207E-16, 1.000000000000000000 ) ) ;
#115 = PLANE ( 'NONE',  #71 ) ;
#116 = FACE_OUTER_BOUND ( 'NONE', #202, .T. ) ;
#117 = CARTESIAN_POINT ( 'NONE',  ( 1.731774744066194397E-13, -6.074248123770872657E-15, 49.60000000000000853 ) ) ;
#118 = CALENDAR_DATE ( 2021, 15, 11 ) ;
#119 = EDGE_LOOP ( 'NONE', ( #185 ) ) ;
#120 = DIRECTION ( 'NONE',  ( 0.0000000000000000000, 1.000000000000000000, 0.0000000000000000000 ) ) ;
#121 = DIRECTION ( 'NONE',  ( -3.491481338843133355E-15, 1.224646799147353207E-16, -1.000000000000000000 ) ) ;
#122 = ADVANCED_FACE ( 'NONE', ( #160, #133 ), #190, .T. ) ;
#123 = UNCERTAINTY_MEASURE_WITH_UNIT (LENGTH_MEASURE( 1.000000000000000082E-05 ), #18, 'distance_accuracy_value', 'NONE');
#124 = CC_DESIGN_APPROVAL ( #3, ( #180 ) ) ;
#125 = DATE_AND_TIME ( #14, #129 ) ;
#126 = CLOSED_SHELL ( 'NONE', ( #33, #92, #81 ) ) ;
#127 = EDGE_CURVE ( 'NONE', #181, #181, #65, .T. ) ;
#128 = AXIS2_PLACEMENT_3D ( 'NONE', #21, #199, #55 ) ;
#129 = LOCAL_TIME ( 16, 37, 2.000000000000000000, #91 ) ;
#130 = VERTEX_POINT ( 'NONE', #147 ) ;
#131 = ORIENTED_EDGE ( 'NONE', *, *, #127, .F. ) ;
#132 = PERSON_AND_ORGANIZATION ( #68, #189 ) ;
#133 = FACE_OUTER_BOUND ( 'NONE', #150, .T. ) ;
#134 = ORIENTED_EDGE ( 'NONE', *, *, #149, .F. ) ;
#135 = CALENDAR_DATE ( 2021, 15, 11 ) ;
#136 = DIRECTION ( 'NONE',  ( -3.491481338843133355E-15, 1.224646799147353207E-16, -1.000000000000000000 ) ) ;
#137 = AXIS2_PLACEMENT_3D ( 'NONE', #139, #169, #85 ) ;
#138 = PERSON_AND_ORGANIZATION ( #68, #189 ) ;
#139 = CARTESIAN_POINT ( 'NONE',  ( 1.745740669421566678E-13, 1.199807826129476918E-32, 50.00000000000000000 ) ) ;
#140 = APPROVAL ( #51, 'UNSPECIFIED' ) ;
#141 = PERSON_AND_ORGANIZATION ( #68, #189 ) ;
#142 = AXIS2_PLACEMENT_3D ( 'NONE', #25, #136, #2 ) ;
#143 = EDGE_CURVE ( 'NONE', #20, #20, #94, .T. ) ;
#144 = AXIS2_PLACEMENT_3D ( 'NONE', #166, #187, #70 ) ;
#145 = LOCAL_TIME ( 16, 37, 2.000000000000000000, #75 ) ;
#146 = APPLICATION_PROTOCOL_DEFINITION ( 'international standard', 'config_control_design', 1994, #87 ) ;
#147 = CARTESIAN_POINT ( 'NONE',  ( 4.189777606611760026E-14, 1.999999999999998668, 12.00000000000000000 ) ) ;
#148 = VERTEX_POINT ( 'NONE', #69 ) ;
#149 = EDGE_CURVE ( 'NONE', #24, #24, #178, .T. ) ;
#150 = EDGE_LOOP ( 'NONE', ( #134 ) ) ;
#151 = DIRECTION ( 'NONE',  ( -4.275831445896958607E-31, -1.000000000000000000, -1.224646799147353207E-16 ) ) ;
#152 = COORDINATED_UNIVERSAL_TIME_OFFSET ( 1, 0, .AHEAD. ) ;
#153 = DIRECTION ( 'NONE',  ( 3.491481338843133355E-15, -1.224646799147353207E-16, 1.000000000000000000 ) ) ;
#154 = AXIS2_PLACEMENT_3D ( 'NONE', #184, #41, #104 ) ;
#155 = DATE_AND_TIME ( #63, #60 ) ;
#156 = DESIGN_CONTEXT ( 'detailed design', #200, 'design' ) ;
#157 = DATE_TIME_ROLE ( 'classification_date' ) ;
#158 = CIRCLE ( 'NONE', #78, 2.000000000000000000 ) ;
#159 = CARTESIAN_POINT ( 'NONE',  ( 4.189777606611760026E-14, 1.499759782661855966E-32, 12.00000000000000000 ) ) ;
#160 = FACE_OUTER_BOUND ( 'NONE', #23, .T. ) ;
#161 = PRODUCT_RELATED_PRODUCT_CATEGORY ( 'detail', '', ( #72 ) ) ;
#162 = PERSON_AND_ORGANIZATION_ROLE ( 'design_owner' ) ;
#163 = DIRECTION ( 'NONE',  ( 0.0000000000000000000, 1.000000000000000000, 0.0000000000000000000 ) ) ;
#164 = CC_DESIGN_PERSON_AND_ORGANIZATION_ASSIGNMENT ( #141, #28, ( #180 ) ) ;
#165 = CARTESIAN_POINT ( 'NONE',  ( 1.731774744066194397E-13, 1.999999999999994893, 49.60000000000000853 ) ) ;
#166 = CARTESIAN_POINT ( 'NONE',  ( -4.275831445896957731E-31, 1.499759782661857608E-32, -1.224646799147353207E-16 ) ) ;
#167 = CLOSED_SHELL ( 'NONE', ( #196, #122, #182, #12 ) ) ;
#168 = DIRECTION ( 'NONE',  ( -3.491481338843133355E-15, 1.224646799147353207E-16, -1.000000000000000000 ) ) ;
#169 = DIRECTION ( 'NONE',  ( -3.491481338843133355E-15, 1.224646799147353207E-16, -1.000000000000000000 ) ) ;
#170 = EDGE_LOOP ( 'NONE', ( #6 ) ) ;
#171 = DIRECTION ( 'NONE',  ( 0.0000000000000000000, 1.000000000000000000, 0.0000000000000000000 ) ) ;
#172 = LOCAL_TIME ( 16, 37, 2.000000000000000000, #31 ) ;
#173 = APPROVAL_ROLE ( '' ) ;
#174 = EDGE_CURVE ( 'NONE', #148, #148, #158, .T. ) ;
#175 = LOCAL_TIME ( 16, 37, 2.000000000000000000, #35 ) ;
#176 = ADVANCED_BREP_SHAPE_REPRESENTATION ( '711', ( #45, #44, #66 ), #110 ) ;
#177 = DIRECTION ( 'NONE',  ( 1.000000000000000000, 0.0000000000000000000, 0.0000000000000000000 ) ) ;
#178 = CIRCLE ( 'NONE', #17, 2.000000000000000000 ) ;
#179 = ORIENTED_EDGE ( 'NONE', *, *, #174, .F. ) ;
#180 = PRODUCT_DEFINITION_FORMATION_WITH_SPECIFIED_SOURCE ( 'ANY', '', #72, .NOT_KNOWN. ) ;
#181 = VERTEX_POINT ( 'NONE', #101 ) ;
#182 = ADVANCED_FACE ( 'NONE', ( #22, #116 ), #36, .T. ) ;
#183 = CYLINDRICAL_SURFACE ( 'NONE', #142, 2.000000000000000000 ) ;
#184 = CARTESIAN_POINT ( 'NONE',  ( 1.731774744066194397E-13, -6.074248123770872657E-15, 49.60000000000000853 ) ) ;
#185 = ORIENTED_EDGE ( 'NONE', *, *, #111, .T. ) ;
#186 = DATE_AND_TIME ( #118, #175 ) ;
#187 = DIRECTION ( 'NONE',  ( -3.491481338843133355E-15, 1.224646799147353207E-16, -1.000000000000000000 ) ) ;
#188 = AXIS2_PLACEMENT_3D ( 'NONE', #82, #40, #163 ) ;
#189 = ORGANIZATION ( 'UNSPECIFIED', 'UNSPECIFIED', '' ) ;
#190 = CYLINDRICAL_SURFACE ( 'NONE', #128, 2.000000000000000444 ) ;
#191 = DIRECTION ( 'NONE',  ( -3.491481338843133355E-15, 1.224646799147353207E-16, -1.000000000000000000 ) ) ;
#192 = SECURITY_CLASSIFICATION_LEVEL ( 'unclassified' ) ;
#193 = AXIS2_PLACEMENT_3D ( 'NONE', #159, #114, #113 ) ;
#194 = CC_DESIGN_APPROVAL ( #140, ( #83 ) ) ;
#195 = PRODUCT_DEFINITION_SHAPE ( 'NONE', 'NONE',  #83 ) ;
#196 = ADVANCED_FACE ( 'NONE', ( #99 ), #67, .F. ) ;
#197 = EDGE_LOOP ( 'NONE', ( #179 ) ) ;
#198 = CARTESIAN_POINT ( 'NONE',  ( 4.189777606611760026E-14, 1.999999999999998668, 12.00000000000000000 ) ) ;
#199 = DIRECTION ( 'NONE',  ( -3.491481338843133355E-15, 1.224646799147353207E-16, -1.000000000000000000 ) ) ;
#200 = APPLICATION_CONTEXT ( 'configuration controlled 3d designs of mechanical parts and assemblies' ) ;
#201 = APPLICATION_PROTOCOL_DEFINITION ( 'international standard', 'config_control_design', 1994, #200 ) ;
#202 = EDGE_LOOP ( 'NONE', ( #8 ) ) ;
#203 = AXIS2_PLACEMENT_3D ( 'NONE', #117, #191, #46 ) ;
ENDSEC;
END-ISO-10303-21;
