ISO-10303-21;
HEADER;
FILE_DESCRIPTION (( 'STEP AP203' ),
    '1' );
FILE_NAME ('710.step',
    '2021-11-15T15:37:02',
    ( '' ),
    ( '' ),
    'SwSTEP 2.0',
    'SolidWorks 2019',
    '' );
FILE_SCHEMA (( 'CONFIG_CONTROL_DESIGN' ));
ENDSEC;

DATA;
#1 = DIRECTION ( 'NONE',  ( 0.0000000000000000000, 1.000000000000000000, 0.0000000000000000000 ) ) ;
#2 = APPROVAL_DATE_TIME ( #78, #63 ) ;
#3 = ADVANCED_FACE ( 'NONE', ( #104, #116 ), #99, .T. ) ;
#4 = UNCERTAINTY_MEASURE_WITH_UNIT (LENGTH_MEASURE( 1.000000000000000082E-05 ), #51, 'distance_accuracy_value', 'NONE');
#5 = CC_DESIGN_DATE_AND_TIME_ASSIGNMENT ( #53, #178, ( #6 ) ) ;
#6 = SECURITY_CLASSIFICATION ( '', '', #128 ) ;
#7 = CIRCLE ( 'NONE', #30, 1.500000000000000000 ) ;
#8 = PERSON_AND_ORGANIZATION ( #60, #111 ) ;
#9 = CARTESIAN_POINT ( 'NONE',  ( 1.326762908760390423E-13, 8.998558695971082698E-33, 38.00000000000000000 ) ) ;
#10 = PERSON_AND_ORGANIZATION ( #60, #111 ) ;
#11 = CLOSED_SHELL ( 'NONE', ( #166, #108, #152, #123 ) ) ;
#12 = EDGE_LOOP ( 'NONE', ( #96 ) ) ;
#13 = COORDINATED_UNIVERSAL_TIME_OFFSET ( 1, 0, .AHEAD. ) ;
#14 = DATE_AND_TIME ( #155, #159 ) ;
#15 = EDGE_CURVE ( 'NONE', #192, #192, #7, .T. ) ;
#16 = AXIS2_PLACEMENT_3D ( 'NONE', #40, #156, #20 ) ;
#17 = PRODUCT_DEFINITION ( 'UNKNOWN', '', #76, #61 ) ;
#18 =( GEOMETRIC_REPRESENTATION_CONTEXT ( 3 ) GLOBAL_UNCERTAINTY_ASSIGNED_CONTEXT ( ( #4 ) ) GLOBAL_UNIT_ASSIGNED_CONTEXT ( ( #51, #100, #81 ) ) REPRESENTATION_CONTEXT ( 'NONE', 'WORKASPACE' ) );
#19 = DIRECTION ( 'NONE',  ( -3.491481338843133355E-15, 1.224646799147353207E-16, -1.000000000000000000 ) ) ;
#20 = DIRECTION ( 'NONE',  ( 4.275831445896958607E-31, 1.000000000000000000, 1.224646799147353207E-16 ) ) ;
#21 = DIRECTION ( 'NONE',  ( 1.000000000000000000, 0.0000000000000000000, 0.0000000000000000000 ) ) ;
#22 = APPROVAL_PERSON_ORGANIZATION ( #10, #29, #66 ) ;
#23 = PLANE ( 'NONE',  #139 ) ;
#24 = PRODUCT_DEFINITION_SHAPE ( 'NONE', 'NONE',  #17 ) ;
#25 = DIRECTION ( 'NONE',  ( -4.275831445896958607E-31, -1.000000000000000000, -1.224646799147353207E-16 ) ) ;
#26 = PRODUCT_RELATED_PRODUCT_CATEGORY ( 'detail', '', ( #84 ) ) ;
#27 = ORIENTED_EDGE ( 'NONE', *, *, #15, .T. ) ;
#28 = AXIS2_PLACEMENT_3D ( 'NONE', #68, #202, #56 ) ;
#29 = APPROVAL ( #161, 'UNSPECIFIED' ) ;
#30 = AXIS2_PLACEMENT_3D ( 'NONE', #165, #130, #200 ) ;
#31 = EDGE_LOOP ( 'NONE', ( #42 ) ) ;
#32 = EDGE_CURVE ( 'NONE', #106, #106, #127, .T. ) ;
#33 = COORDINATED_UNIVERSAL_TIME_OFFSET ( 1, 0, .AHEAD. ) ;
#34 = CIRCLE ( 'NONE', #28, 1.500000000000000000 ) ;
#35 = DATE_TIME_ROLE ( 'creation_date' ) ;
#36 = EDGE_LOOP ( 'NONE', ( #150 ) ) ;
#37 = CARTESIAN_POINT ( 'NONE',  ( 1.326762908760390423E-13, 1.199999999999996181, 38.00000000000000000 ) ) ;
#38 = DIRECTION ( 'NONE',  ( 0.0000000000000000000, 1.000000000000000000, 0.0000000000000000000 ) ) ;
#39 = APPLICATION_PROTOCOL_DEFINITION ( 'international standard', 'config_control_design', 1994, #49 ) ;
#40 = CARTESIAN_POINT ( 'NONE',  ( 0.0000000000000000000, 0.0000000000000000000, 0.0000000000000000000 ) ) ;
#41 = CALENDAR_DATE ( 2021, 15, 11 ) ;
#42 = ORIENTED_EDGE ( 'NONE', *, *, #176, .T. ) ;
#43 = CARTESIAN_POINT ( 'NONE',  ( 1.326762908760390423E-13, -4.653657836759941941E-15, 38.00000000000000000 ) ) ;
#44 = MANIFOLD_SOLID_BREP ( 'Corps-Déplacer/Copier1[2]', #151 ) ;
#45 = CARTESIAN_POINT ( 'NONE',  ( 3.491481338843133355E-14, 1.499999999999998668, 10.00000000000000000 ) ) ;
#46 = AXIS2_PLACEMENT_3D ( 'NONE', #188, #171, #25 ) ;
#47 = PERSON_AND_ORGANIZATION ( #60, #111 ) ;
#48 = CC_DESIGN_PERSON_AND_ORGANIZATION_ASSIGNMENT ( #8, #67, ( #76 ) ) ;
#49 = APPLICATION_CONTEXT ( 'configuration controlled 3d designs of mechanical parts and assemblies' ) ;
#50 = DIRECTION ( 'NONE',  ( 0.0000000000000000000, 0.0000000000000000000, 1.000000000000000000 ) ) ;
#51 =( LENGTH_UNIT ( ) NAMED_UNIT ( * ) SI_UNIT ( .MILLI., .METRE. ) );
#52 = ORIENTED_EDGE ( 'NONE', *, *, #79, .T. ) ;
#53 = DATE_AND_TIME ( #199, #175 ) ;
#54 = ADVANCED_FACE ( 'NONE', ( #55 ), #157, .T. ) ;
#55 = FACE_OUTER_BOUND ( 'NONE', #31, .T. ) ;
#56 = DIRECTION ( 'NONE',  ( 0.0000000000000000000, 1.000000000000000000, 0.0000000000000000000 ) ) ;
#57 = AXIS2_PLACEMENT_3D ( 'NONE', #75, #19, #38 ) ;
#58 = PLANE ( 'NONE',  #158 ) ;
#59 = DIRECTION ( 'NONE',  ( -3.491481338843133355E-15, 1.224646799147353207E-16, -1.000000000000000000 ) ) ;
#60 = PERSON ( 'UNSPECIFIED', 'UNSPECIFIED', 'UNSPECIFIED', ('UNSPECIFIED'), ('UNSPECIFIED'), ('UNSPECIFIED') ) ;
#61 = DESIGN_CONTEXT ( 'detailed design', #49, 'design' ) ;
#62 = CIRCLE ( 'NONE', #120, 1.200000000000000844 ) ;
#63 = APPROVAL ( #193, 'UNSPECIFIED' ) ;
#64 = EDGE_LOOP ( 'NONE', ( #27 ) ) ;
#65 = CIRCLE ( 'NONE', #80, 1.500000000000000000 ) ;
#66 = APPROVAL_ROLE ( '' ) ;
#67 = PERSON_AND_ORGANIZATION_ROLE ( 'design_supplier' ) ;
#68 = CARTESIAN_POINT ( 'NONE',  ( 3.491481338843133355E-14, -1.224646799147353256E-15, 10.00000000000000000 ) ) ;
#69 = LOCAL_TIME ( 16, 37, 2.000000000000000000, #138 ) ;
#70 = PERSON_AND_ORGANIZATION_ROLE ( 'creator' ) ;
#71 = EDGE_LOOP ( 'NONE', ( #95 ) ) ;
#72 = CARTESIAN_POINT ( 'NONE',  ( 0.0000000000000000000, 1.500000000000000000, 0.0000000000000000000 ) ) ;
#73 = ORIENTED_EDGE ( 'NONE', *, *, #176, .F. ) ;
#74 = PERSON_AND_ORGANIZATION ( #60, #111 ) ;
#75 = CARTESIAN_POINT ( 'NONE',  ( 1.316288464743861212E-13, -4.616918432785521081E-15, 37.69999999999999574 ) ) ;
#76 = PRODUCT_DEFINITION_FORMATION_WITH_SPECIFIED_SOURCE ( 'ANY', '', #84, .NOT_KNOWN. ) ;
#77 = FACE_OUTER_BOUND ( 'NONE', #144, .T. ) ;
#78 = DATE_AND_TIME ( #140, #69 ) ;
#79 = EDGE_CURVE ( 'NONE', #131, #131, #34, .T. ) ;
#80 = AXIS2_PLACEMENT_3D ( 'NONE', #129, #59, #122 ) ;
#81 =( NAMED_UNIT ( * ) SI_UNIT ( $, .STERADIAN. ) SOLID_ANGLE_UNIT ( ) );
#82 = APPROVAL_DATE_TIME ( #14, #195 ) ;
#83 = FACE_OUTER_BOUND ( 'NONE', #160, .T. ) ;
#84 = PRODUCT ( '710', '710', '', ( #170 ) ) ;
#85 = CC_DESIGN_PERSON_AND_ORGANIZATION_ASSIGNMENT ( #147, #70, ( #76 ) ) ;
#86 = APPLICATION_PROTOCOL_DEFINITION ( 'international standard', 'config_control_design', 1994, #145 ) ;
#87 = FACE_OUTER_BOUND ( 'NONE', #71, .T. ) ;
#88 = AXIS2_PLACEMENT_3D ( 'NONE', #167, #50, #21 ) ;
#89 = PERSON_AND_ORGANIZATION_ROLE ( 'creator' ) ;
#90 = EDGE_LOOP ( 'NONE', ( #73 ) ) ;
#91 = APPROVAL_ROLE ( '' ) ;
#92 = FACE_BOUND ( 'NONE', #12, .T. ) ;
#93 = DIRECTION ( 'NONE',  ( 4.275831445896959482E-31, 1.000000000000000000, 1.224646799147353207E-16 ) ) ;
#94 = CC_DESIGN_DATE_AND_TIME_ASSIGNMENT ( #98, #35, ( #17 ) ) ;
#95 = ORIENTED_EDGE ( 'NONE', *, *, #32, .T. ) ;
#96 = ORIENTED_EDGE ( 'NONE', *, *, #112, .T. ) ;
#97 = CC_DESIGN_APPROVAL ( #29, ( #17 ) ) ;
#98 = DATE_AND_TIME ( #41, #162 ) ;
#99 = CYLINDRICAL_SURFACE ( 'NONE', #146, 1.500000000000000000 ) ;
#100 =( NAMED_UNIT ( * ) PLANE_ANGLE_UNIT ( ) SI_UNIT ( $, .RADIAN. ) );
#101 = DIRECTION ( 'NONE',  ( -3.491481338843133355E-15, 1.224646799147353207E-16, -1.000000000000000000 ) ) ;
#102 = CARTESIAN_POINT ( 'NONE',  ( -3.206873584422719393E-31, 1.124819836996393206E-32, -9.184850993605149670E-17 ) ) ;
#103 = APPROVAL_STATUS ( 'not_yet_approved' ) ;
#104 = FACE_OUTER_BOUND ( 'NONE', #64, .T. ) ;
#105 = DIRECTION ( 'NONE',  ( 4.275831445896958607E-31, 1.000000000000000000, 1.224646799147353207E-16 ) ) ;
#106 = VERTEX_POINT ( 'NONE', #174 ) ;
#107 = CC_DESIGN_APPROVAL ( #63, ( #6 ) ) ;
#108 = ADVANCED_FACE ( 'NONE', ( #87, #77 ), #119, .T. ) ;
#109 = AXIS2_PLACEMENT_3D ( 'NONE', #102, #101, #185 ) ;
#110 = EDGE_LOOP ( 'NONE', ( #198 ) ) ;
#111 = ORGANIZATION ( 'UNSPECIFIED', 'UNSPECIFIED', '' ) ;
#112 = EDGE_CURVE ( 'NONE', #182, #182, #62, .T. ) ;
#113 = DATE_AND_TIME ( #194, #135 ) ;
#114 = FACE_OUTER_BOUND ( 'NONE', #177, .T. ) ;
#115 = COORDINATED_UNIVERSAL_TIME_OFFSET ( 1, 0, .AHEAD. ) ;
#116 = FACE_OUTER_BOUND ( 'NONE', #90, .T. ) ;
#117 = PERSON_AND_ORGANIZATION ( #60, #111 ) ;
#118 = DIRECTION ( 'NONE',  ( 0.0000000000000000000, 1.000000000000000000, 0.0000000000000000000 ) ) ;
#119 = CYLINDRICAL_SURFACE ( 'NONE', #16, 1.499999999999999556 ) ;
#120 = AXIS2_PLACEMENT_3D ( 'NONE', #43, #136, #1 ) ;
#121 = CARTESIAN_POINT ( 'NONE',  ( 3.491481338843133355E-14, 1.124819836996391290E-32, 10.00000000000000000 ) ) ;
#122 = DIRECTION ( 'NONE',  ( 4.275831445896959482E-31, 1.000000000000000000, 1.224646799147353207E-16 ) ) ;
#123 = ADVANCED_FACE ( 'NONE', ( #114 ), #23, .F. ) ;
#124 = CONICAL_SURFACE ( 'NONE', #57, 1.499999999999998890, 0.7853981633974425058 ) ;
#125 = CC_DESIGN_PERSON_AND_ORGANIZATION_ASSIGNMENT ( #179, #89, ( #17 ) ) ;
#126 = ORIENTED_EDGE ( 'NONE', *, *, #112, .F. ) ;
#127 = CIRCLE ( 'NONE', #189, 1.499999999999998890 ) ;
#128 = SECURITY_CLASSIFICATION_LEVEL ( 'unclassified' ) ;
#129 = CARTESIAN_POINT ( 'NONE',  ( -6.413747168845438786E-31, 2.249639673992786412E-32, -1.836970198721029934E-16 ) ) ;
#130 = DIRECTION ( 'NONE',  ( -3.491481338843133355E-15, 1.224646799147353207E-16, -1.000000000000000000 ) ) ;
#131 = VERTEX_POINT ( 'NONE', #201 ) ;
#132 = DIRECTION ( 'NONE',  ( -3.491481338843133355E-15, 1.224646799147353207E-16, -1.000000000000000000 ) ) ;
#133 = PERSON_AND_ORGANIZATION_ROLE ( 'classification_officer' ) ;
#134 = DIRECTION ( 'NONE',  ( -3.491481338843133355E-15, 1.224646799147353207E-16, -1.000000000000000000 ) ) ;
#135 = LOCAL_TIME ( 16, 37, 2.000000000000000000, #33 ) ;
#136 = DIRECTION ( 'NONE',  ( -3.491481338843133355E-15, 1.224646799147353207E-16, -1.000000000000000000 ) ) ;
#137 = CC_DESIGN_PERSON_AND_ORGANIZATION_ASSIGNMENT ( #186, #149, ( #84 ) ) ;
#138 = COORDINATED_UNIVERSAL_TIME_OFFSET ( 1, 0, .AHEAD. ) ;
#139 = AXIS2_PLACEMENT_3D ( 'NONE', #9, #168, #105 ) ;
#140 = CALENDAR_DATE ( 2021, 15, 11 ) ;
#141 = ADVANCED_BREP_SHAPE_REPRESENTATION ( '710', ( #187, #44, #88 ), #18 ) ;
#142 = APPROVAL_PERSON_ORGANIZATION ( #117, #195, #91 ) ;
#143 = ADVANCED_FACE ( 'NONE', ( #164 ), #181, .T. ) ;
#144 = EDGE_LOOP ( 'NONE', ( #173 ) ) ;
#145 = APPLICATION_CONTEXT ( 'configuration controlled 3d designs of mechanical parts and assemblies' ) ;
#146 = AXIS2_PLACEMENT_3D ( 'NONE', #154, #132, #93 ) ;
#147 = PERSON_AND_ORGANIZATION ( #60, #111 ) ;
#148 = DIRECTION ( 'NONE',  ( 3.491481338843133355E-15, -1.224646799147353207E-16, 1.000000000000000000 ) ) ;
#149 = PERSON_AND_ORGANIZATION_ROLE ( 'design_owner' ) ;
#150 = ORIENTED_EDGE ( 'NONE', *, *, #32, .F. ) ;
#151 = CLOSED_SHELL ( 'NONE', ( #54, #3, #143 ) ) ;
#152 = ADVANCED_FACE ( 'NONE', ( #92, #203 ), #124, .T. ) ;
#153 = APPROVAL_DATE_TIME ( #113, #29 ) ;
#154 = CARTESIAN_POINT ( 'NONE',  ( 0.0000000000000000000, 0.0000000000000000000, 0.0000000000000000000 ) ) ;
#155 = CALENDAR_DATE ( 2021, 15, 11 ) ;
#156 = DIRECTION ( 'NONE',  ( -3.491481338843133355E-15, 1.224646799147353207E-16, -1.000000000000000000 ) ) ;
#157 = PLANE ( 'NONE',  #109 ) ;
#158 = AXIS2_PLACEMENT_3D ( 'NONE', #121, #148, #190 ) ;
#159 = LOCAL_TIME ( 16, 37, 2.000000000000000000, #163 ) ;
#160 = EDGE_LOOP ( 'NONE', ( #52 ) ) ;
#161 = APPROVAL_STATUS ( 'not_yet_approved' ) ;
#162 = LOCAL_TIME ( 16, 37, 2.000000000000000000, #13 ) ;
#163 = COORDINATED_UNIVERSAL_TIME_OFFSET ( 1, 0, .AHEAD. ) ;
#164 = FACE_OUTER_BOUND ( 'NONE', #110, .T. ) ;
#165 = CARTESIAN_POINT ( 'NONE',  ( 3.491481338843133355E-14, -1.224646799147353256E-15, 10.00000000000000000 ) ) ;
#166 = ADVANCED_FACE ( 'NONE', ( #83 ), #58, .F. ) ;
#167 = CARTESIAN_POINT ( 'NONE',  ( 0.0000000000000000000, 0.0000000000000000000, 0.0000000000000000000 ) ) ;
#168 = DIRECTION ( 'NONE',  ( -3.491481338843133355E-15, 1.224646799147353207E-16, -1.000000000000000000 ) ) ;
#169 = CC_DESIGN_SECURITY_CLASSIFICATION ( #6, ( #76 ) ) ;
#170 = MECHANICAL_CONTEXT ( 'NONE', #145, 'mechanical' ) ;
#171 = DIRECTION ( 'NONE',  ( 3.491481338843133355E-15, -1.224646799147353207E-16, 1.000000000000000000 ) ) ;
#172 = SHAPE_DEFINITION_REPRESENTATION ( #24, #141 ) ;
#173 = ORIENTED_EDGE ( 'NONE', *, *, #79, .F. ) ;
#174 = CARTESIAN_POINT ( 'NONE',  ( 1.316288464743861212E-13, 1.499999999999994449, 37.69999999999999574 ) ) ;
#175 = LOCAL_TIME ( 16, 37, 2.000000000000000000, #115 ) ;
#176 = EDGE_CURVE ( 'NONE', #196, #196, #65, .T. ) ;
#177 = EDGE_LOOP ( 'NONE', ( #126 ) ) ;
#178 = DATE_TIME_ROLE ( 'classification_date' ) ;
#179 = PERSON_AND_ORGANIZATION ( #60, #111 ) ;
#180 = CC_DESIGN_APPROVAL ( #195, ( #76 ) ) ;
#181 = PLANE ( 'NONE',  #46 ) ;
#182 = VERTEX_POINT ( 'NONE', #37 ) ;
#183 = CC_DESIGN_PERSON_AND_ORGANIZATION_ASSIGNMENT ( #74, #133, ( #6 ) ) ;
#184 = CARTESIAN_POINT ( 'NONE',  ( 1.316288464743861212E-13, -4.616918432785521081E-15, 37.69999999999999574 ) ) ;
#185 = DIRECTION ( 'NONE',  ( 4.275831445896958607E-31, 1.000000000000000000, 1.224646799147353207E-16 ) ) ;
#186 = PERSON_AND_ORGANIZATION ( #60, #111 ) ;
#187 = MANIFOLD_SOLID_BREP ( 'Corps-Déplacer/Copier1[1]', #11 ) ;
#188 = CARTESIAN_POINT ( 'NONE',  ( 3.491481338843133355E-14, 1.124819836996391290E-32, 10.00000000000000000 ) ) ;
#189 = AXIS2_PLACEMENT_3D ( 'NONE', #184, #134, #118 ) ;
#190 = DIRECTION ( 'NONE',  ( -4.275831445896958607E-31, -1.000000000000000000, -1.224646799147353207E-16 ) ) ;
#191 = APPROVAL_ROLE ( '' ) ;
#192 = VERTEX_POINT ( 'NONE', #45 ) ;
#193 = APPROVAL_STATUS ( 'not_yet_approved' ) ;
#194 = CALENDAR_DATE ( 2021, 15, 11 ) ;
#195 = APPROVAL ( #103, 'UNSPECIFIED' ) ;
#196 = VERTEX_POINT ( 'NONE', #72 ) ;
#197 = APPROVAL_PERSON_ORGANIZATION ( #47, #63, #191 ) ;
#198 = ORIENTED_EDGE ( 'NONE', *, *, #15, .F. ) ;
#199 = CALENDAR_DATE ( 2021, 15, 11 ) ;
#200 = DIRECTION ( 'NONE',  ( 0.0000000000000000000, 1.000000000000000000, 0.0000000000000000000 ) ) ;
#201 = CARTESIAN_POINT ( 'NONE',  ( 3.491481338843133355E-14, 1.499999999999998668, 10.00000000000000000 ) ) ;
#202 = DIRECTION ( 'NONE',  ( -3.491481338843133355E-15, 1.224646799147353207E-16, -1.000000000000000000 ) ) ;
#203 = FACE_OUTER_BOUND ( 'NONE', #36, .T. ) ;
ENDSEC;
END-ISO-10303-21;
