ISO-10303-21;
HEADER;
FILE_DESCRIPTION (( 'STEP AP203' ),
    '1' );
FILE_NAME ('707.step',
    '2021-11-12T10:08:59',
    ( '' ),
    ( '' ),
    'SwSTEP 2.0',
    'SolidWorks 2019',
    '' );
FILE_SCHEMA (( 'CONFIG_CONTROL_DESIGN' ));
ENDSEC;

DATA;
#1 = FACE_OUTER_BOUND ( 'NONE', #114, .T. ) ;
#2 = LOCAL_TIME ( 11, 8, 59.00000000000000000, #108 ) ;
#3 = FACE_OUTER_BOUND ( 'NONE', #93, .T. ) ;
#4 =( NAMED_UNIT ( * ) PLANE_ANGLE_UNIT ( ) SI_UNIT ( $, .RADIAN. ) );
#5 = VERTEX_POINT ( 'NONE', #68 ) ;
#6 = CC_DESIGN_SECURITY_CLASSIFICATION ( #175, ( #173 ) ) ;
#7 = VERTEX_POINT ( 'NONE', #20 ) ;
#8 = COORDINATED_UNIVERSAL_TIME_OFFSET ( 1, 0, .AHEAD. ) ;
#9 = APPROVAL_STATUS ( 'not_yet_approved' ) ;
#10 = COORDINATED_UNIVERSAL_TIME_OFFSET ( 1, 0, .AHEAD. ) ;
#11 = CIRCLE ( 'NONE', #103, 4.000000000000000000 ) ;
#12 = DIRECTION ( 'NONE',  ( -3.491481338843133355E-15, 1.224646799147353207E-16, -1.000000000000000000 ) ) ;
#13 = AXIS2_PLACEMENT_3D ( 'NONE', #14, #124, #191 ) ;
#14 = CARTESIAN_POINT ( 'NONE',  ( 2.199633243471174140E-13, 2.624579619658236582E-32, 63.00000000000000000 ) ) ;
#15 = DIRECTION ( 'NONE',  ( -4.275831445896958607E-31, -1.000000000000000000, -1.224646799147353207E-16 ) ) ;
#16 = FACE_OUTER_BOUND ( 'NONE', #27, .T. ) ;
#17 = ORIENTED_EDGE ( 'NONE', *, *, #201, .T. ) ;
#18 = CIRCLE ( 'NONE', #144, 3.499999999999996891 ) ;
#19 = DIRECTION ( 'NONE',  ( -3.491481338843133355E-15, 1.224646799147353207E-16, -1.000000000000000000 ) ) ;
#20 = CARTESIAN_POINT ( 'NONE',  ( 8.728703347107833388E-14, 3.999999999999997335, 25.00000000000000000 ) ) ;
#21 = PLANE ( 'NONE',  #72 ) ;
#22 = CC_DESIGN_PERSON_AND_ORGANIZATION_ASSIGNMENT ( #58, #43, ( #175 ) ) ;
#23 = CONICAL_SURFACE ( 'NONE', #99, 3.499999999999996891, 0.7853981633974518317 ) ;
#24 = CARTESIAN_POINT ( 'NONE',  ( 3.421138828918010427E-46, 4.000000000000000000, 0.0000000000000000000 ) ) ;
#25 = CALENDAR_DATE ( 2021, 12, 11 ) ;
#26 = APPROVAL_DATE_TIME ( #126, #46 ) ;
#27 = EDGE_LOOP ( 'NONE', ( #164 ) ) ;
#28 = PERSON_AND_ORGANIZATION ( #82, #78 ) ;
#29 = COORDINATED_UNIVERSAL_TIME_OFFSET ( 1, 0, .AHEAD. ) ;
#30 = APPROVAL ( #179, 'UNSPECIFIED' ) ;
#31 = AXIS2_PLACEMENT_3D ( 'NONE', #187, #19, #196 ) ;
#32 = ORIENTED_EDGE ( 'NONE', *, *, #153, .T. ) ;
#33 = CARTESIAN_POINT ( 'NONE',  ( 8.728703347107833388E-14, 2.999519565323711931E-32, 25.00000000000000000 ) ) ;
#34 = ADVANCED_FACE ( 'NONE', ( #180 ), #165, .F. ) ;
#35 = ORIENTED_EDGE ( 'NONE', *, *, #118, .F. ) ;
#36 = APPLICATION_PROTOCOL_DEFINITION ( 'international standard', 'config_control_design', 1994, #145 ) ;
#37 = CC_DESIGN_PERSON_AND_ORGANIZATION_ASSIGNMENT ( #152, #169, ( #166 ) ) ;
#38 = CIRCLE ( 'NONE', #199, 4.000000000000000888 ) ;
#39 = DIRECTION ( 'NONE',  ( 1.000000000000000000, 0.0000000000000000000, 0.0000000000000000000 ) ) ;
#40 = DIRECTION ( 'NONE',  ( 4.275831445896958607E-31, 1.000000000000000000, 1.224646799147353207E-16 ) ) ;
#41 = DIRECTION ( 'NONE',  ( -3.491481338843133355E-15, 1.224646799147353207E-16, -1.000000000000000000 ) ) ;
#42 = AXIS2_PLACEMENT_3D ( 'NONE', #151, #119, #133 ) ;
#43 = PERSON_AND_ORGANIZATION_ROLE ( 'classification_officer' ) ;
#44 = PLANE ( 'NONE',  #111 ) ;
#45 = DATE_AND_TIME ( #88, #161 ) ;
#46 = APPROVAL ( #9, 'UNSPECIFIED' ) ;
#47 = CIRCLE ( 'NONE', #42, 4.000000000000000888 ) ;
#48 = ORIENTED_EDGE ( 'NONE', *, *, #178, .F. ) ;
#49 = CLOSED_SHELL ( 'NONE', ( #34, #125, #138, #91 ) ) ;
#50 = AXIS2_PLACEMENT_3D ( 'NONE', #137, #66, #39 ) ;
#51 = CYLINDRICAL_SURFACE ( 'NONE', #182, 4.000000000000000888 ) ;
#52 = VERTEX_POINT ( 'NONE', #134 ) ;
#53 = CC_DESIGN_APPROVAL ( #30, ( #173 ) ) ;
#54 = FACE_OUTER_BOUND ( 'NONE', #94, .T. ) ;
#55 = CARTESIAN_POINT ( 'NONE',  ( 2.199633243471174140E-13, -7.715274834628325378E-15, 63.00000000000000000 ) ) ;
#56 = APPROVAL_ROLE ( '' ) ;
#57 = CIRCLE ( 'NONE', #31, 4.000000000000000888 ) ;
#58 = PERSON_AND_ORGANIZATION ( #82, #78 ) ;
#59 = DIRECTION ( 'NONE',  ( 3.491481338843133355E-15, -1.224646799147353207E-16, 1.000000000000000000 ) ) ;
#60 = FACE_OUTER_BOUND ( 'NONE', #80, .T. ) ;
#61 = CC_DESIGN_PERSON_AND_ORGANIZATION_ASSIGNMENT ( #70, #128, ( #173 ) ) ;
#62 = PLANE ( 'NONE',  #13 ) ;
#63 = APPROVAL_PERSON_ORGANIZATION ( #87, #46, #77 ) ;
#64 = EDGE_LOOP ( 'NONE', ( #48 ) ) ;
#65 = PRODUCT_DEFINITION_SHAPE ( 'NONE', 'NONE',  #95 ) ;
#66 = DIRECTION ( 'NONE',  ( 0.0000000000000000000, 0.0000000000000000000, 1.000000000000000000 ) ) ;
#67 =( LENGTH_UNIT ( ) NAMED_UNIT ( * ) SI_UNIT ( .MILLI., .METRE. ) );
#68 = CARTESIAN_POINT ( 'NONE',  ( 2.199633243471174140E-13, 3.499999999999989342, 63.00000000000000000 ) ) ;
#69 =( NAMED_UNIT ( * ) SI_UNIT ( $, .STERADIAN. ) SOLID_ANGLE_UNIT ( ) );
#70 = PERSON_AND_ORGANIZATION ( #82, #78 ) ;
#71 = ADVANCED_FACE ( 'NONE', ( #1, #130 ), #75, .T. ) ;
#72 = AXIS2_PLACEMENT_3D ( 'NONE', #188, #171, #85 ) ;
#73 = DATE_AND_TIME ( #154, #2 ) ;
#74 = APPLICATION_CONTEXT ( 'configuration controlled 3d designs of mechanical parts and assemblies' ) ;
#75 = CYLINDRICAL_SURFACE ( 'NONE', #115, 4.000000000000000000 ) ;
#76 = MANIFOLD_SOLID_BREP ( 'Corps-Déplacer/Copier1[1]', #49 ) ;
#77 = APPROVAL_ROLE ( '' ) ;
#78 = ORGANIZATION ( 'UNSPECIFIED', 'UNSPECIFIED', '' ) ;
#79 = MANIFOLD_SOLID_BREP ( 'Corps-Déplacer/Copier1[2]', #143 ) ;
#80 = EDGE_LOOP ( 'NONE', ( #17 ) ) ;
#81 = DIRECTION ( 'NONE',  ( 4.275831445896958607E-31, 1.000000000000000000, 1.224646799147353207E-16 ) ) ;
#82 = PERSON ( 'UNSPECIFIED', 'UNSPECIFIED', 'UNSPECIFIED', ('UNSPECIFIED'), ('UNSPECIFIED'), ('UNSPECIFIED') ) ;
#83 = ORIENTED_EDGE ( 'NONE', *, *, #118, .T. ) ;
#84 = CARTESIAN_POINT ( 'NONE',  ( 8.728703347107833388E-14, 3.999999999999997335, 25.00000000000000000 ) ) ;
#85 = DIRECTION ( 'NONE',  ( 4.275831445896958607E-31, 1.000000000000000000, 1.224646799147353207E-16 ) ) ;
#86 = FACE_BOUND ( 'NONE', #112, .T. ) ;
#87 = PERSON_AND_ORGANIZATION ( #82, #78 ) ;
#88 = CALENDAR_DATE ( 2021, 12, 11 ) ;
#89 = CARTESIAN_POINT ( 'NONE',  ( 8.728703347107833388E-14, -3.061616997868383043E-15, 25.00000000000000000 ) ) ;
#90 = DATE_TIME_ROLE ( 'creation_date' ) ;
#91 = ADVANCED_FACE ( 'NONE', ( #16 ), #62, .F. ) ;
#92 = CC_DESIGN_PERSON_AND_ORGANIZATION_ASSIGNMENT ( #28, #104, ( #95 ) ) ;
#93 = EDGE_LOOP ( 'NONE', ( #131 ) ) ;
#94 = EDGE_LOOP ( 'NONE', ( #181 ) ) ;
#95 = PRODUCT_DEFINITION ( 'UNKNOWN', '', #173, #155 ) ;
#96 = EDGE_LOOP ( 'NONE', ( #35 ) ) ;
#97 = ADVANCED_BREP_SHAPE_REPRESENTATION ( '707', ( #76, #79, #50 ), #120 ) ;
#98 = MECHANICAL_CONTEXT ( 'NONE', #145, 'mechanical' ) ;
#99 = AXIS2_PLACEMENT_3D ( 'NONE', #55, #185, #183 ) ;
#100 = VERTEX_POINT ( 'NONE', #84 ) ;
#101 = DIRECTION ( 'NONE',  ( 0.0000000000000000000, 1.000000000000000000, 0.0000000000000000000 ) ) ;
#102 = DIRECTION ( 'NONE',  ( -3.491481338843133355E-15, 1.224646799147353207E-16, -1.000000000000000000 ) ) ;
#103 = AXIS2_PLACEMENT_3D ( 'NONE', #172, #102, #136 ) ;
#104 = PERSON_AND_ORGANIZATION_ROLE ( 'creator' ) ;
#105 = UNCERTAINTY_MEASURE_WITH_UNIT (LENGTH_MEASURE( 1.000000000000000082E-05 ), #67, 'distance_accuracy_value', 'NONE');
#106 = CALENDAR_DATE ( 2021, 12, 11 ) ;
#107 = CARTESIAN_POINT ( 'NONE',  ( 8.728703347107833388E-14, 2.999519565323711931E-32, 25.00000000000000000 ) ) ;
#108 = COORDINATED_UNIVERSAL_TIME_OFFSET ( 1, 0, .AHEAD. ) ;
#109 = ADVANCED_FACE ( 'NONE', ( #148 ), #44, .T. ) ;
#110 = APPROVAL_STATUS ( 'not_yet_approved' ) ;
#111 = AXIS2_PLACEMENT_3D ( 'NONE', #107, #147, #141 ) ;
#112 = EDGE_LOOP ( 'NONE', ( #149 ) ) ;
#113 = CC_DESIGN_DATE_AND_TIME_ASSIGNMENT ( #73, #90, ( #95 ) ) ;
#114 = EDGE_LOOP ( 'NONE', ( #83 ) ) ;
#115 = AXIS2_PLACEMENT_3D ( 'NONE', #116, #193, #81 ) ;
#116 = CARTESIAN_POINT ( 'NONE',  ( 0.0000000000000000000, 0.0000000000000000000, 0.0000000000000000000 ) ) ;
#117 = CARTESIAN_POINT ( 'NONE',  ( 2.199633243471174140E-13, -7.715274834628325378E-15, 63.00000000000000000 ) ) ;
#118 = EDGE_CURVE ( 'NONE', #7, #7, #38, .T. ) ;
#119 = DIRECTION ( 'NONE',  ( -3.491481338843133355E-15, 1.224646799147353207E-16, -1.000000000000000000 ) ) ;
#120 =( GEOMETRIC_REPRESENTATION_CONTEXT ( 3 ) GLOBAL_UNCERTAINTY_ASSIGNED_CONTEXT ( ( #105 ) ) GLOBAL_UNIT_ASSIGNED_CONTEXT ( ( #67, #4, #69 ) ) REPRESENTATION_CONTEXT ( 'NONE', 'WORKASPACE' ) );
#121 = LOCAL_TIME ( 11, 8, 59.00000000000000000, #8 ) ;
#122 = PERSON_AND_ORGANIZATION ( #82, #78 ) ;
#123 = APPROVAL_DATE_TIME ( #177, #163 ) ;
#124 = DIRECTION ( 'NONE',  ( -3.491481338843133355E-15, 1.224646799147353207E-16, -1.000000000000000000 ) ) ;
#125 = ADVANCED_FACE ( 'NONE', ( #60, #127 ), #51, .T. ) ;
#126 = DATE_AND_TIME ( #142, #121 ) ;
#127 = FACE_OUTER_BOUND ( 'NONE', #167, .T. ) ;
#128 = PERSON_AND_ORGANIZATION_ROLE ( 'creator' ) ;
#129 = LOCAL_TIME ( 11, 8, 59.00000000000000000, #29 ) ;
#130 = FACE_OUTER_BOUND ( 'NONE', #64, .T. ) ;
#131 = ORIENTED_EDGE ( 'NONE', *, *, #178, .T. ) ;
#132 = APPROVAL_PERSON_ORGANIZATION ( #140, #30, #158 ) ;
#133 = DIRECTION ( 'NONE',  ( 0.0000000000000000000, 1.000000000000000000, 0.0000000000000000000 ) ) ;
#134 = CARTESIAN_POINT ( 'NONE',  ( 2.182175836776958284E-13, 3.999999999999993339, 62.50000000000000000 ) ) ;
#135 = ADVANCED_FACE ( 'NONE', ( #3 ), #21, .T. ) ;
#136 = DIRECTION ( 'NONE',  ( 4.275831445896958607E-31, 1.000000000000000000, 1.224646799147353207E-16 ) ) ;
#137 = CARTESIAN_POINT ( 'NONE',  ( 0.0000000000000000000, 0.0000000000000000000, 0.0000000000000000000 ) ) ;
#138 = ADVANCED_FACE ( 'NONE', ( #54, #86 ), #23, .T. ) ;
#139 = VERTEX_POINT ( 'NONE', #24 ) ;
#140 = PERSON_AND_ORGANIZATION ( #82, #78 ) ;
#141 = DIRECTION ( 'NONE',  ( -4.275831445896958607E-31, -1.000000000000000000, -1.224646799147353207E-16 ) ) ;
#142 = CALENDAR_DATE ( 2021, 12, 11 ) ;
#143 = CLOSED_SHELL ( 'NONE', ( #135, #71, #109 ) ) ;
#144 = AXIS2_PLACEMENT_3D ( 'NONE', #117, #170, #101 ) ;
#145 = APPLICATION_CONTEXT ( 'configuration controlled 3d designs of mechanical parts and assemblies' ) ;
#146 = APPROVAL_PERSON_ORGANIZATION ( #174, #163, #56 ) ;
#147 = DIRECTION ( 'NONE',  ( 3.491481338843133355E-15, -1.224646799147353207E-16, 1.000000000000000000 ) ) ;
#148 = FACE_OUTER_BOUND ( 'NONE', #96, .T. ) ;
#149 = ORIENTED_EDGE ( 'NONE', *, *, #194, .T. ) ;
#150 = CC_DESIGN_PERSON_AND_ORGANIZATION_ASSIGNMENT ( #122, #189, ( #173 ) ) ;
#151 = CARTESIAN_POINT ( 'NONE',  ( 2.182175836776958284E-13, -7.654042494670957804E-15, 62.50000000000000000 ) ) ;
#152 = PERSON_AND_ORGANIZATION ( #82, #78 ) ;
#153 = EDGE_CURVE ( 'NONE', #100, #100, #57, .T. ) ;
#154 = CALENDAR_DATE ( 2021, 12, 11 ) ;
#155 = DESIGN_CONTEXT ( 'detailed design', #74, 'design' ) ;
#156 = SECURITY_CLASSIFICATION_LEVEL ( 'unclassified' ) ;
#157 = CC_DESIGN_APPROVAL ( #163, ( #95 ) ) ;
#158 = APPROVAL_ROLE ( '' ) ;
#159 = DATE_TIME_ROLE ( 'classification_date' ) ;
#160 = CC_DESIGN_DATE_AND_TIME_ASSIGNMENT ( #45, #159, ( #175 ) ) ;
#161 = LOCAL_TIME ( 11, 8, 59.00000000000000000, #10 ) ;
#162 = EDGE_LOOP ( 'NONE', ( #32 ) ) ;
#163 = APPROVAL ( #110, 'UNSPECIFIED' ) ;
#164 = ORIENTED_EDGE ( 'NONE', *, *, #194, .F. ) ;
#165 = PLANE ( 'NONE',  #195 ) ;
#166 = PRODUCT ( '707', '707', '', ( #98 ) ) ;
#167 = EDGE_LOOP ( 'NONE', ( #176 ) ) ;
#168 = CARTESIAN_POINT ( 'NONE',  ( 0.0000000000000000000, 0.0000000000000000000, 0.0000000000000000000 ) ) ;
#169 = PERSON_AND_ORGANIZATION_ROLE ( 'design_owner' ) ;
#170 = DIRECTION ( 'NONE',  ( -3.491481338843133355E-15, 1.224646799147353207E-16, -1.000000000000000000 ) ) ;
#171 = DIRECTION ( 'NONE',  ( -3.491481338843133355E-15, 1.224646799147353207E-16, -1.000000000000000000 ) ) ;
#172 = CARTESIAN_POINT ( 'NONE',  ( -1.710332578358783092E-30, 5.999039130647430431E-32, -4.898587196589412829E-16 ) ) ;
#173 = PRODUCT_DEFINITION_FORMATION_WITH_SPECIFIED_SOURCE ( 'ANY', '', #166, .NOT_KNOWN. ) ;
#174 = PERSON_AND_ORGANIZATION ( #82, #78 ) ;
#175 = SECURITY_CLASSIFICATION ( '', '', #156 ) ;
#176 = ORIENTED_EDGE ( 'NONE', *, *, #153, .F. ) ;
#177 = DATE_AND_TIME ( #106, #129 ) ;
#178 = EDGE_CURVE ( 'NONE', #139, #139, #11, .T. ) ;
#179 = APPROVAL_STATUS ( 'not_yet_approved' ) ;
#180 = FACE_OUTER_BOUND ( 'NONE', #162, .T. ) ;
#181 = ORIENTED_EDGE ( 'NONE', *, *, #201, .F. ) ;
#182 = AXIS2_PLACEMENT_3D ( 'NONE', #168, #41, #40 ) ;
#183 = DIRECTION ( 'NONE',  ( 0.0000000000000000000, 1.000000000000000000, 0.0000000000000000000 ) ) ;
#184 = CC_DESIGN_APPROVAL ( #46, ( #175 ) ) ;
#185 = DIRECTION ( 'NONE',  ( -3.491481338843133355E-15, 1.224646799147353207E-16, -1.000000000000000000 ) ) ;
#186 = PRODUCT_RELATED_PRODUCT_CATEGORY ( 'detail', '', ( #166 ) ) ;
#187 = CARTESIAN_POINT ( 'NONE',  ( 8.728703347107833388E-14, -3.061616997868383043E-15, 25.00000000000000000 ) ) ;
#188 = CARTESIAN_POINT ( 'NONE',  ( -8.551662891793915461E-31, 2.999519565323715216E-32, -2.449293598294706414E-16 ) ) ;
#189 = PERSON_AND_ORGANIZATION_ROLE ( 'design_supplier' ) ;
#190 = DATE_AND_TIME ( #25, #203 ) ;
#191 = DIRECTION ( 'NONE',  ( 4.275831445896958607E-31, 1.000000000000000000, 1.224646799147353207E-16 ) ) ;
#192 = APPROVAL_DATE_TIME ( #190, #30 ) ;
#193 = DIRECTION ( 'NONE',  ( -3.491481338843133355E-15, 1.224646799147353207E-16, -1.000000000000000000 ) ) ;
#194 = EDGE_CURVE ( 'NONE', #5, #5, #18, .T. ) ;
#195 = AXIS2_PLACEMENT_3D ( 'NONE', #33, #59, #15 ) ;
#196 = DIRECTION ( 'NONE',  ( 0.0000000000000000000, 1.000000000000000000, 0.0000000000000000000 ) ) ;
#197 = APPLICATION_PROTOCOL_DEFINITION ( 'international standard', 'config_control_design', 1994, #74 ) ;
#198 = COORDINATED_UNIVERSAL_TIME_OFFSET ( 1, 0, .AHEAD. ) ;
#199 = AXIS2_PLACEMENT_3D ( 'NONE', #89, #12, #200 ) ;
#200 = DIRECTION ( 'NONE',  ( 0.0000000000000000000, 1.000000000000000000, 0.0000000000000000000 ) ) ;
#201 = EDGE_CURVE ( 'NONE', #52, #52, #47, .T. ) ;
#202 = SHAPE_DEFINITION_REPRESENTATION ( #65, #97 ) ;
#203 = LOCAL_TIME ( 11, 8, 59.00000000000000000, #198 ) ;
ENDSEC;
END-ISO-10303-21;
