ISO-10303-21;
HEADER;
FILE_DESCRIPTION (( 'STEP AP203' ),
    '1' );
FILE_NAME ('704.step',
    '2021-11-12T10:08:59',
    ( '' ),
    ( '' ),
    'SwSTEP 2.0',
    'SolidWorks 2019',
    '' );
FILE_SCHEMA (( 'CONFIG_CONTROL_DESIGN' ));
ENDSEC;

DATA;
#1 = DIRECTION ( 'NONE',  ( 0.0000000000000000000, 1.000000000000000000, 0.0000000000000000000 ) ) ;
#2 = PERSON ( 'UNSPECIFIED', 'UNSPECIFIED', 'UNSPECIFIED', ('UNSPECIFIED'), ('UNSPECIFIED'), ('UNSPECIFIED') ) ;
#3 = PERSON_AND_ORGANIZATION_ROLE ( 'creator' ) ;
#4 = DATE_AND_TIME ( #34, #106 ) ;
#5 = PERSON_AND_ORGANIZATION ( #2, #169 ) ;
#6 = PRODUCT_RELATED_PRODUCT_CATEGORY ( 'detail', '', ( #145 ) ) ;
#7 = DESIGN_CONTEXT ( 'detailed design', #74, 'design' ) ;
#8 = CARTESIAN_POINT ( 'NONE',  ( 1.745740669421566678E-13, -6.123233995736766085E-15, 50.00000000000000000 ) ) ;
#9 = CC_DESIGN_PERSON_AND_ORGANIZATION_ASSIGNMENT ( #40, #3, ( #157 ) ) ;
#10 = FACE_OUTER_BOUND ( 'NONE', #95, .T. ) ;
#11 = AXIS2_PLACEMENT_3D ( 'NONE', #63, #44, #26 ) ;
#12 = SECURITY_CLASSIFICATION ( '', '', #71 ) ;
#13 = EDGE_LOOP ( 'NONE', ( #98 ) ) ;
#14 = CARTESIAN_POINT ( 'NONE',  ( 0.0000000000000000000, 0.0000000000000000000, 0.0000000000000000000 ) ) ;
#15 = CC_DESIGN_PERSON_AND_ORGANIZATION_ASSIGNMENT ( #5, #195, ( #145 ) ) ;
#16 =( NAMED_UNIT ( * ) PLANE_ANGLE_UNIT ( ) SI_UNIT ( $, .RADIAN. ) );
#17 = CC_DESIGN_APPROVAL ( #47, ( #157 ) ) ;
#18 = PERSON_AND_ORGANIZATION_ROLE ( 'design_supplier' ) ;
#19 = CARTESIAN_POINT ( 'NONE',  ( 1.731774744066194397E-13, 1.999999999999994893, 49.60000000000000853 ) ) ;
#20 = AXIS2_PLACEMENT_3D ( 'NONE', #147, #173, #69 ) ;
#21 = DIRECTION ( 'NONE',  ( 4.275831445896958607E-31, 1.000000000000000000, 1.224646799147353207E-16 ) ) ;
#22 = APPROVAL_STATUS ( 'not_yet_approved' ) ;
#23 = APPROVAL_DATE_TIME ( #39, #47 ) ;
#24 = ORIENTED_EDGE ( 'NONE', *, *, #73, .T. ) ;
#25 = EDGE_CURVE ( 'NONE', #35, #35, #180, .T. ) ;
#26 = DIRECTION ( 'NONE',  ( 4.275831445896958607E-31, 1.000000000000000000, 1.224646799147353207E-16 ) ) ;
#27 =( GEOMETRIC_REPRESENTATION_CONTEXT ( 3 ) GLOBAL_UNCERTAINTY_ASSIGNED_CONTEXT ( ( #81 ) ) GLOBAL_UNIT_ASSIGNED_CONTEXT ( ( #49, #16, #130 ) ) REPRESENTATION_CONTEXT ( 'NONE', 'WORKASPACE' ) );
#28 = ORIENTED_EDGE ( 'NONE', *, *, #188, .T. ) ;
#29 = DIRECTION ( 'NONE',  ( -3.491481338843133355E-15, 1.224646799147353207E-16, -1.000000000000000000 ) ) ;
#30 = CC_DESIGN_DATE_AND_TIME_ASSIGNMENT ( #144, #76, ( #157 ) ) ;
#31 = CARTESIAN_POINT ( 'NONE',  ( 1.710569414459005214E-46, 2.000000000000000000, 0.0000000000000000000 ) ) ;
#32 = DIRECTION ( 'NONE',  ( -3.491481338843133355E-15, 1.224646799147353207E-16, -1.000000000000000000 ) ) ;
#33 = DIRECTION ( 'NONE',  ( -3.491481338843133355E-15, 1.224646799147353207E-16, -1.000000000000000000 ) ) ;
#34 = CALENDAR_DATE ( 2021, 12, 11 ) ;
#35 = VERTEX_POINT ( 'NONE', #31 ) ;
#36 = VERTEX_POINT ( 'NONE', #141 ) ;
#37 = COORDINATED_UNIVERSAL_TIME_OFFSET ( 1, 0, .AHEAD. ) ;
#38 = APPROVAL_ROLE ( '' ) ;
#39 = DATE_AND_TIME ( #178, #112 ) ;
#40 = PERSON_AND_ORGANIZATION ( #2, #169 ) ;
#41 = EDGE_LOOP ( 'NONE', ( #28 ) ) ;
#42 = CARTESIAN_POINT ( 'NONE',  ( 1.745740669421566678E-13, 1.199807826129479518E-32, 50.00000000000000000 ) ) ;
#43 = CYLINDRICAL_SURFACE ( 'NONE', #114, 2.000000000000000444 ) ;
#44 = DIRECTION ( 'NONE',  ( -3.491481338843133355E-15, 1.224646799147353207E-16, -1.000000000000000000 ) ) ;
#45 = AXIS2_PLACEMENT_3D ( 'NONE', #42, #153, #94 ) ;
#46 = ORIENTED_EDGE ( 'NONE', *, *, #25, .T. ) ;
#47 = APPROVAL ( #22, 'UNSPECIFIED' ) ;
#48 = CIRCLE ( 'NONE', #103, 2.000000000000000000 ) ;
#49 =( LENGTH_UNIT ( ) NAMED_UNIT ( * ) SI_UNIT ( .MILLI., .METRE. ) );
#50 = MANIFOLD_SOLID_BREP ( 'Corps-Déplacer/Copier1[2]', #109 ) ;
#51 = CARTESIAN_POINT ( 'NONE',  ( 1.745740669421566678E-13, 1.599999999999997202, 50.00000000000000000 ) ) ;
#52 = PLANE ( 'NONE',  #176 ) ;
#53 = CC_DESIGN_APPROVAL ( #163, ( #196 ) ) ;
#54 = APPROVAL_DATE_TIME ( #132, #55 ) ;
#55 = APPROVAL ( #193, 'UNSPECIFIED' ) ;
#56 = EDGE_CURVE ( 'NONE', #160, #160, #122, .T. ) ;
#57 = CALENDAR_DATE ( 2021, 12, 11 ) ;
#58 = AXIS2_PLACEMENT_3D ( 'NONE', #150, #105, #119 ) ;
#59 = SHAPE_DEFINITION_REPRESENTATION ( #162, #118 ) ;
#60 = APPROVAL_PERSON_ORGANIZATION ( #177, #163, #38 ) ;
#61 = APPLICATION_PROTOCOL_DEFINITION ( 'international standard', 'config_control_design', 1994, #74 ) ;
#62 = PERSON_AND_ORGANIZATION_ROLE ( 'creator' ) ;
#63 = CARTESIAN_POINT ( 'NONE',  ( -4.275831445896957731E-31, 1.499759782661857608E-32, -1.224646799147353207E-16 ) ) ;
#64 = APPLICATION_CONTEXT ( 'configuration controlled 3d designs of mechanical parts and assemblies' ) ;
#65 = FACE_OUTER_BOUND ( 'NONE', #84, .T. ) ;
#66 = PLANE ( 'NONE',  #11 ) ;
#67 = AXIS2_PLACEMENT_3D ( 'NONE', #14, #83, #140 ) ;
#68 = DIRECTION ( 'NONE',  ( -3.491481338843133355E-15, 1.224646799147353207E-16, -1.000000000000000000 ) ) ;
#69 = DIRECTION ( 'NONE',  ( 0.0000000000000000000, 1.000000000000000000, 0.0000000000000000000 ) ) ;
#70 = LOCAL_TIME ( 11, 8, 59.00000000000000000, #75 ) ;
#71 = SECURITY_CLASSIFICATION_LEVEL ( 'unclassified' ) ;
#72 = DIRECTION ( 'NONE',  ( 0.0000000000000000000, 1.000000000000000000, 0.0000000000000000000 ) ) ;
#73 = EDGE_CURVE ( 'NONE', #89, #89, #198, .T. ) ;
#74 = APPLICATION_CONTEXT ( 'configuration controlled 3d designs of mechanical parts and assemblies' ) ;
#75 = COORDINATED_UNIVERSAL_TIME_OFFSET ( 1, 0, .AHEAD. ) ;
#76 = DATE_TIME_ROLE ( 'creation_date' ) ;
#77 = APPROVAL_ROLE ( '' ) ;
#78 = CIRCLE ( 'NONE', #20, 2.000000000000000000 ) ;
#79 = CALENDAR_DATE ( 2021, 12, 11 ) ;
#80 = PERSON_AND_ORGANIZATION ( #2, #169 ) ;
#81 = UNCERTAINTY_MEASURE_WITH_UNIT (LENGTH_MEASURE( 1.000000000000000082E-05 ), #49, 'distance_accuracy_value', 'NONE');
#82 = ORIENTED_EDGE ( 'NONE', *, *, #56, .F. ) ;
#83 = DIRECTION ( 'NONE',  ( -3.491481338843133355E-15, 1.224646799147353207E-16, -1.000000000000000000 ) ) ;
#84 = EDGE_LOOP ( 'NONE', ( #92 ) ) ;
#85 = CC_DESIGN_APPROVAL ( #55, ( #12 ) ) ;
#86 = AXIS2_PLACEMENT_3D ( 'NONE', #8, #200, #186 ) ;
#87 = ADVANCED_FACE ( 'NONE', ( #158 ), #66, .T. ) ;
#88 = AXIS2_PLACEMENT_3D ( 'NONE', #159, #68, #127 ) ;
#89 = VERTEX_POINT ( 'NONE', #51 ) ;
#90 = APPLICATION_PROTOCOL_DEFINITION ( 'international standard', 'config_control_design', 1994, #64 ) ;
#91 = MANIFOLD_SOLID_BREP ( 'Corps-Déplacer/Copier1[1]', #192 ) ;
#92 = ORIENTED_EDGE ( 'NONE', *, *, #188, .F. ) ;
#93 = ADVANCED_FACE ( 'NONE', ( #167, #154 ), #139, .T. ) ;
#94 = DIRECTION ( 'NONE',  ( 4.275831445896958607E-31, 1.000000000000000000, 1.224646799147353207E-16 ) ) ;
#95 = EDGE_LOOP ( 'NONE', ( #155 ) ) ;
#96 = AXIS2_PLACEMENT_3D ( 'NONE', #202, #29, #197 ) ;
#97 = EDGE_LOOP ( 'NONE', ( #184 ) ) ;
#98 = ORIENTED_EDGE ( 'NONE', *, *, #25, .F. ) ;
#99 = CC_DESIGN_DATE_AND_TIME_ASSIGNMENT ( #107, #133, ( #12 ) ) ;
#100 = APPROVAL_PERSON_ORGANIZATION ( #174, #55, #149 ) ;
#101 = COORDINATED_UNIVERSAL_TIME_OFFSET ( 1, 0, .AHEAD. ) ;
#102 = PERSON_AND_ORGANIZATION ( #2, #169 ) ;
#103 = AXIS2_PLACEMENT_3D ( 'NONE', #129, #33, #72 ) ;
#104 = CARTESIAN_POINT ( 'NONE',  ( 4.189777606611760026E-14, 1.999999999999998668, 12.00000000000000000 ) ) ;
#105 = DIRECTION ( 'NONE',  ( 0.0000000000000000000, 0.0000000000000000000, 1.000000000000000000 ) ) ;
#106 = LOCAL_TIME ( 11, 8, 59.00000000000000000, #151 ) ;
#107 = DATE_AND_TIME ( #164, #152 ) ;
#108 = PERSON_AND_ORGANIZATION ( #2, #169 ) ;
#109 = CLOSED_SHELL ( 'NONE', ( #87, #93, #115 ) ) ;
#110 = CC_DESIGN_PERSON_AND_ORGANIZATION_ASSIGNMENT ( #80, #189, ( #12 ) ) ;
#111 = CARTESIAN_POINT ( 'NONE',  ( 0.0000000000000000000, 0.0000000000000000000, 0.0000000000000000000 ) ) ;
#112 = LOCAL_TIME ( 11, 8, 59.00000000000000000, #134 ) ;
#113 = ORIENTED_EDGE ( 'NONE', *, *, #183, .T. ) ;
#114 = AXIS2_PLACEMENT_3D ( 'NONE', #111, #168, #21 ) ;
#115 = ADVANCED_FACE ( 'NONE', ( #65 ), #181, .T. ) ;
#116 = DIRECTION ( 'NONE',  ( -4.275831445896958607E-31, -1.000000000000000000, -1.224646799147353207E-16 ) ) ;
#117 = APPROVAL_STATUS ( 'not_yet_approved' ) ;
#118 = ADVANCED_BREP_SHAPE_REPRESENTATION ( '704', ( #91, #50, #58 ), #27 ) ;
#119 = DIRECTION ( 'NONE',  ( 1.000000000000000000, 0.0000000000000000000, 0.0000000000000000000 ) ) ;
#120 = PERSON_AND_ORGANIZATION ( #2, #169 ) ;
#121 = PLANE ( 'NONE',  #45 ) ;
#122 = CIRCLE ( 'NONE', #88, 2.000000000000000888 ) ;
#123 = ADVANCED_FACE ( 'NONE', ( #201 ), #121, .F. ) ;
#124 = DIRECTION ( 'NONE',  ( -4.275831445896958607E-31, -1.000000000000000000, -1.224646799147353207E-16 ) ) ;
#125 = FACE_OUTER_BOUND ( 'NONE', #97, .T. ) ;
#126 = CONICAL_SURFACE ( 'NONE', #161, 1.600000000000003419, 0.7853981633974482790 ) ;
#127 = DIRECTION ( 'NONE',  ( 0.0000000000000000000, 1.000000000000000000, 0.0000000000000000000 ) ) ;
#128 = ADVANCED_FACE ( 'NONE', ( #10, #125 ), #43, .T. ) ;
#129 = CARTESIAN_POINT ( 'NONE',  ( 4.189777606611760026E-14, -1.469576158976823947E-15, 12.00000000000000000 ) ) ;
#130 =( NAMED_UNIT ( * ) SI_UNIT ( $, .STERADIAN. ) SOLID_ANGLE_UNIT ( ) );
#131 = CARTESIAN_POINT ( 'NONE',  ( 4.189777606611760026E-14, 1.499759782661855966E-32, 12.00000000000000000 ) ) ;
#132 = DATE_AND_TIME ( #79, #185 ) ;
#133 = DATE_TIME_ROLE ( 'classification_date' ) ;
#134 = COORDINATED_UNIVERSAL_TIME_OFFSET ( 1, 0, .AHEAD. ) ;
#135 = EDGE_LOOP ( 'NONE', ( #46 ) ) ;
#136 = AXIS2_PLACEMENT_3D ( 'NONE', #137, #203, #124 ) ;
#137 = CARTESIAN_POINT ( 'NONE',  ( 4.189777606611760026E-14, 1.499759782661855966E-32, 12.00000000000000000 ) ) ;
#138 = CC_DESIGN_PERSON_AND_ORGANIZATION_ASSIGNMENT ( #102, #18, ( #196 ) ) ;
#139 = CYLINDRICAL_SURFACE ( 'NONE', #67, 2.000000000000000000 ) ;
#140 = DIRECTION ( 'NONE',  ( 4.275831445896958607E-31, 1.000000000000000000, 1.224646799147353207E-16 ) ) ;
#141 = CARTESIAN_POINT ( 'NONE',  ( 4.189777606611760026E-14, 1.999999999999998668, 12.00000000000000000 ) ) ;
#142 = FACE_OUTER_BOUND ( 'NONE', #171, .T. ) ;
#143 = FACE_BOUND ( 'NONE', #156, .T. ) ;
#144 = DATE_AND_TIME ( #57, #70 ) ;
#145 = PRODUCT ( '704', '704', '', ( #191 ) ) ;
#146 = DIRECTION ( 'NONE',  ( 3.491481338843133355E-15, -1.224646799147353207E-16, 1.000000000000000000 ) ) ;
#147 = CARTESIAN_POINT ( 'NONE',  ( 4.189777606611760026E-14, -1.469576158976823947E-15, 12.00000000000000000 ) ) ;
#148 = ADVANCED_FACE ( 'NONE', ( #142 ), #52, .F. ) ;
#149 = APPROVAL_ROLE ( '' ) ;
#150 = CARTESIAN_POINT ( 'NONE',  ( 0.0000000000000000000, 0.0000000000000000000, 0.0000000000000000000 ) ) ;
#151 = COORDINATED_UNIVERSAL_TIME_OFFSET ( 1, 0, .AHEAD. ) ;
#152 = LOCAL_TIME ( 11, 8, 59.00000000000000000, #37 ) ;
#153 = DIRECTION ( 'NONE',  ( -3.491481338843133355E-15, 1.224646799147353207E-16, -1.000000000000000000 ) ) ;
#154 = FACE_OUTER_BOUND ( 'NONE', #13, .T. ) ;
#155 = ORIENTED_EDGE ( 'NONE', *, *, #56, .T. ) ;
#156 = EDGE_LOOP ( 'NONE', ( #24 ) ) ;
#157 = PRODUCT_DEFINITION ( 'UNKNOWN', '', #196, #7 ) ;
#158 = FACE_OUTER_BOUND ( 'NONE', #135, .T. ) ;
#159 = CARTESIAN_POINT ( 'NONE',  ( 1.731774744066194397E-13, -6.074248123770872657E-15, 49.60000000000000853 ) ) ;
#160 = VERTEX_POINT ( 'NONE', #19 ) ;
#161 = AXIS2_PLACEMENT_3D ( 'NONE', #172, #32, #1 ) ;
#162 = PRODUCT_DEFINITION_SHAPE ( 'NONE', 'NONE',  #157 ) ;
#163 = APPROVAL ( #117, 'UNSPECIFIED' ) ;
#164 = CALENDAR_DATE ( 2021, 12, 11 ) ;
#165 = APPROVAL_DATE_TIME ( #4, #163 ) ;
#166 = CC_DESIGN_SECURITY_CLASSIFICATION ( #12, ( #196 ) ) ;
#167 = FACE_OUTER_BOUND ( 'NONE', #41, .T. ) ;
#168 = DIRECTION ( 'NONE',  ( -3.491481338843133355E-15, 1.224646799147353207E-16, -1.000000000000000000 ) ) ;
#169 = ORGANIZATION ( 'UNSPECIFIED', 'UNSPECIFIED', '' ) ;
#170 = ORIENTED_EDGE ( 'NONE', *, *, #73, .F. ) ;
#171 = EDGE_LOOP ( 'NONE', ( #113 ) ) ;
#172 = CARTESIAN_POINT ( 'NONE',  ( 1.745740669421566678E-13, -6.123233995736766085E-15, 50.00000000000000000 ) ) ;
#173 = DIRECTION ( 'NONE',  ( -3.491481338843133355E-15, 1.224646799147353207E-16, -1.000000000000000000 ) ) ;
#174 = PERSON_AND_ORGANIZATION ( #2, #169 ) ;
#175 = CC_DESIGN_PERSON_AND_ORGANIZATION_ASSIGNMENT ( #108, #62, ( #196 ) ) ;
#176 = AXIS2_PLACEMENT_3D ( 'NONE', #131, #146, #116 ) ;
#177 = PERSON_AND_ORGANIZATION ( #2, #169 ) ;
#178 = CALENDAR_DATE ( 2021, 12, 11 ) ;
#179 = EDGE_LOOP ( 'NONE', ( #82 ) ) ;
#180 = CIRCLE ( 'NONE', #96, 2.000000000000000000 ) ;
#181 = PLANE ( 'NONE',  #136 ) ;
#182 = EDGE_LOOP ( 'NONE', ( #170 ) ) ;
#183 = EDGE_CURVE ( 'NONE', #190, #190, #78, .T. ) ;
#184 = ORIENTED_EDGE ( 'NONE', *, *, #183, .F. ) ;
#185 = LOCAL_TIME ( 11, 8, 59.00000000000000000, #101 ) ;
#186 = DIRECTION ( 'NONE',  ( 0.0000000000000000000, 1.000000000000000000, 0.0000000000000000000 ) ) ;
#187 = FACE_OUTER_BOUND ( 'NONE', #179, .T. ) ;
#188 = EDGE_CURVE ( 'NONE', #36, #36, #48, .T. ) ;
#189 = PERSON_AND_ORGANIZATION_ROLE ( 'classification_officer' ) ;
#190 = VERTEX_POINT ( 'NONE', #104 ) ;
#191 = MECHANICAL_CONTEXT ( 'NONE', #64, 'mechanical' ) ;
#192 = CLOSED_SHELL ( 'NONE', ( #148, #128, #199, #123 ) ) ;
#193 = APPROVAL_STATUS ( 'not_yet_approved' ) ;
#194 = APPROVAL_PERSON_ORGANIZATION ( #120, #47, #77 ) ;
#195 = PERSON_AND_ORGANIZATION_ROLE ( 'design_owner' ) ;
#196 = PRODUCT_DEFINITION_FORMATION_WITH_SPECIFIED_SOURCE ( 'ANY', '', #145, .NOT_KNOWN. ) ;
#197 = DIRECTION ( 'NONE',  ( 4.275831445896958607E-31, 1.000000000000000000, 1.224646799147353207E-16 ) ) ;
#198 = CIRCLE ( 'NONE', #86, 1.600000000000003419 ) ;
#199 = ADVANCED_FACE ( 'NONE', ( #187, #143 ), #126, .T. ) ;
#200 = DIRECTION ( 'NONE',  ( -3.491481338843133355E-15, 1.224646799147353207E-16, -1.000000000000000000 ) ) ;
#201 = FACE_OUTER_BOUND ( 'NONE', #182, .T. ) ;
#202 = CARTESIAN_POINT ( 'NONE',  ( -8.551662891793915461E-31, 2.999519565323715216E-32, -2.449293598294706414E-16 ) ) ;
#203 = DIRECTION ( 'NONE',  ( 3.491481338843133355E-15, -1.224646799147353207E-16, 1.000000000000000000 ) ) ;
ENDSEC;
END-ISO-10303-21;
