ISO-10303-21;
HEADER;
FILE_DESCRIPTION (( 'STEP AP203' ),
    '1' );
FILE_NAME ('703.step',
    '2021-11-12T10:08:59',
    ( '' ),
    ( '' ),
    'SwSTEP 2.0',
    'SolidWorks 2019',
    '' );
FILE_SCHEMA (( 'CONFIG_CONTROL_DESIGN' ));
ENDSEC;

DATA;
#1 = DATE_AND_TIME ( #17, #186 ) ;
#2 = EDGE_LOOP ( 'NONE', ( #67 ) ) ;
#3 = APPROVAL_ROLE ( '' ) ;
#4 = CYLINDRICAL_SURFACE ( 'NONE', #82, 1.500000000000000000 ) ;
#5 = PERSON_AND_ORGANIZATION ( #30, #154 ) ;
#6 = DIRECTION ( 'NONE',  ( -3.491481338843133355E-15, 1.224646799147353207E-16, -1.000000000000000000 ) ) ;
#7 = CONICAL_SURFACE ( 'NONE', #134, 1.200000000000000844, 0.7853981633974309595 ) ;
#8 = PRODUCT_RELATED_PRODUCT_CATEGORY ( 'detail', '', ( #83 ) ) ;
#9 = MECHANICAL_CONTEXT ( 'NONE', #48, 'mechanical' ) ;
#10 = DIRECTION ( 'NONE',  ( 3.491481338843133355E-15, -1.224646799147353207E-16, 1.000000000000000000 ) ) ;
#11 = ADVANCED_FACE ( 'NONE', ( #169, #171 ), #52, .T. ) ;
#12 = CC_DESIGN_APPROVAL ( #146, ( #137 ) ) ;
#13 = CC_DESIGN_PERSON_AND_ORGANIZATION_ASSIGNMENT ( #42, #104, ( #137 ) ) ;
#14 = EDGE_CURVE ( 'NONE', #78, #78, #49, .T. ) ;
#15 = CLOSED_SHELL ( 'NONE', ( #98, #121, #139 ) ) ;
#16 = DIRECTION ( 'NONE',  ( -3.491481338843133355E-15, 1.224646799147353207E-16, -1.000000000000000000 ) ) ;
#17 = CALENDAR_DATE ( 2021, 12, 11 ) ;
#18 = DIRECTION ( 'NONE',  ( 0.0000000000000000000, 1.000000000000000000, 0.0000000000000000000 ) ) ;
#19 = FACE_BOUND ( 'NONE', #183, .T. ) ;
#20 = COORDINATED_UNIVERSAL_TIME_OFFSET ( 1, 0, .AHEAD. ) ;
#21 = CARTESIAN_POINT ( 'NONE',  ( 3.491481338843133355E-14, 1.124819836996391290E-32, 10.00000000000000000 ) ) ;
#22 = PLANE ( 'NONE',  #174 ) ;
#23 = VERTEX_POINT ( 'NONE', #92 ) ;
#24 = DESIGN_CONTEXT ( 'detailed design', #187, 'design' ) ;
#25 = EDGE_CURVE ( 'NONE', #103, #103, #64, .T. ) ;
#26 = LOCAL_TIME ( 11, 8, 59.00000000000000000, #70 ) ;
#27 = PERSON_AND_ORGANIZATION ( #30, #154 ) ;
#28 = DATE_AND_TIME ( #136, #26 ) ;
#29 = ADVANCED_FACE ( 'NONE', ( #33 ), #145, .F. ) ;
#30 = PERSON ( 'UNSPECIFIED', 'UNSPECIFIED', 'UNSPECIFIED', ('UNSPECIFIED'), ('UNSPECIFIED'), ('UNSPECIFIED') ) ;
#31 = DIRECTION ( 'NONE',  ( -3.491481338843133355E-15, 1.224646799147353207E-16, -1.000000000000000000 ) ) ;
#32 = CIRCLE ( 'NONE', #37, 1.500000000000000000 ) ;
#33 = FACE_OUTER_BOUND ( 'NONE', #125, .T. ) ;
#34 = DATE_AND_TIME ( #60, #120 ) ;
#35 = ORIENTED_EDGE ( 'NONE', *, *, #87, .F. ) ;
#36 = ORIENTED_EDGE ( 'NONE', *, *, #14, .F. ) ;
#37 = AXIS2_PLACEMENT_3D ( 'NONE', #184, #31, #95 ) ;
#38 = PERSON_AND_ORGANIZATION ( #30, #154 ) ;
#39 = DIRECTION ( 'NONE',  ( 4.275831445896958607E-31, 1.000000000000000000, 1.224646799147353207E-16 ) ) ;
#40 = APPROVAL_DATE_TIME ( #129, #124 ) ;
#41 = DIRECTION ( 'NONE',  ( -4.275831445896958607E-31, -1.000000000000000000, -1.224646799147353207E-16 ) ) ;
#42 = PERSON_AND_ORGANIZATION ( #30, #154 ) ;
#43 = FACE_OUTER_BOUND ( 'NONE', #2, .T. ) ;
#44 = EDGE_LOOP ( 'NONE', ( #126 ) ) ;
#45 = EDGE_LOOP ( 'NONE', ( #135 ) ) ;
#46 = ORIENTED_EDGE ( 'NONE', *, *, #14, .T. ) ;
#47 = CC_DESIGN_DATE_AND_TIME_ASSIGNMENT ( #1, #109, ( #137 ) ) ;
#48 = APPLICATION_CONTEXT ( 'configuration controlled 3d designs of mechanical parts and assemblies' ) ;
#49 = CIRCLE ( 'NONE', #166, 1.500000000000000000 ) ;
#50 = ADVANCED_FACE ( 'NONE', ( #73, #19 ), #7, .T. ) ;
#51 = DIRECTION ( 'NONE',  ( -3.491481338843133355E-15, 1.224646799147353207E-16, -1.000000000000000000 ) ) ;
#52 = CYLINDRICAL_SURFACE ( 'NONE', #107, 1.499999999999999556 ) ;
#53 = AXIS2_PLACEMENT_3D ( 'NONE', #61, #6, #119 ) ;
#54 = CARTESIAN_POINT ( 'NONE',  ( 3.491481338843133355E-14, -1.224646799147353256E-15, 10.00000000000000000 ) ) ;
#55 = COORDINATED_UNIVERSAL_TIME_OFFSET ( 1, 0, .AHEAD. ) ;
#56 = CARTESIAN_POINT ( 'NONE',  ( 3.491481338843133355E-14, 1.124819836996391290E-32, 10.00000000000000000 ) ) ;
#57 = CC_DESIGN_PERSON_AND_ORGANIZATION_ASSIGNMENT ( #5, #130, ( #96 ) ) ;
#58 = PERSON_AND_ORGANIZATION ( #30, #154 ) ;
#59 = PLANE ( 'NONE',  #66 ) ;
#60 = CALENDAR_DATE ( 2021, 12, 11 ) ;
#61 = CARTESIAN_POINT ( 'NONE',  ( 1.326762908760390675E-13, -4.653657836759942730E-15, 38.00000000000000711 ) ) ;
#62 = UNCERTAINTY_MEASURE_WITH_UNIT (LENGTH_MEASURE( 1.000000000000000082E-05 ), #193, 'distance_accuracy_value', 'NONE');
#63 = APPLICATION_PROTOCOL_DEFINITION ( 'international standard', 'config_control_design', 1994, #187 ) ;
#64 = CIRCLE ( 'NONE', #80, 1.499999999999998890 ) ;
#65 = EDGE_LOOP ( 'NONE', ( #35 ) ) ;
#66 = AXIS2_PLACEMENT_3D ( 'NONE', #21, #115, #148 ) ;
#67 = ORIENTED_EDGE ( 'NONE', *, *, #75, .F. ) ;
#68 = AXIS2_PLACEMENT_3D ( 'NONE', #192, #162, #39 ) ;
#69 = DIRECTION ( 'NONE',  ( 0.0000000000000000000, 1.000000000000000000, 0.0000000000000000000 ) ) ;
#70 = COORDINATED_UNIVERSAL_TIME_OFFSET ( 1, 0, .AHEAD. ) ;
#71 = MANIFOLD_SOLID_BREP ( 'Corps-Déplacer/Copier1[2]', #15 ) ;
#72 = PERSON_AND_ORGANIZATION_ROLE ( 'creator' ) ;
#73 = FACE_OUTER_BOUND ( 'NONE', #122, .T. ) ;
#74 = APPLICATION_PROTOCOL_DEFINITION ( 'international standard', 'config_control_design', 1994, #48 ) ;
#75 = EDGE_CURVE ( 'NONE', #177, #177, #32, .T. ) ;
#76 = FACE_OUTER_BOUND ( 'NONE', #151, .T. ) ;
#77 = VERTEX_POINT ( 'NONE', #163 ) ;
#78 = VERTEX_POINT ( 'NONE', #132 ) ;
#79 = APPROVAL_PERSON_ORGANIZATION ( #128, #152, #3 ) ;
#80 = AXIS2_PLACEMENT_3D ( 'NONE', #156, #51, #18 ) ;
#81 = AXIS2_PLACEMENT_3D ( 'NONE', #99, #85, #175 ) ;
#82 = AXIS2_PLACEMENT_3D ( 'NONE', #160, #196, #178 ) ;
#83 = PRODUCT ( '703', '703', '', ( #9 ) ) ;
#84 = DIRECTION ( 'NONE',  ( 0.0000000000000000000, 1.000000000000000000, 0.0000000000000000000 ) ) ;
#85 = DIRECTION ( 'NONE',  ( 0.0000000000000000000, 0.0000000000000000000, 1.000000000000000000 ) ) ;
#86 = DIRECTION ( 'NONE',  ( -3.491481338843133355E-15, 1.224646799147353207E-16, -1.000000000000000000 ) ) ;
#87 = EDGE_CURVE ( 'NONE', #77, #77, #150, .T. ) ;
#88 = CALENDAR_DATE ( 2021, 12, 11 ) ;
#89 = CARTESIAN_POINT ( 'NONE',  ( 0.0000000000000000000, 1.500000000000000000, 0.0000000000000000000 ) ) ;
#90 = FACE_OUTER_BOUND ( 'NONE', #65, .T. ) ;
#91 = APPROVAL_PERSON_ORGANIZATION ( #97, #124, #118 ) ;
#92 = CARTESIAN_POINT ( 'NONE',  ( 1.326762908760390675E-13, 1.199999999999996181, 38.00000000000000711 ) ) ;
#93 = AXIS2_PLACEMENT_3D ( 'NONE', #153, #16, #84 ) ;
#94 = SHAPE_DEFINITION_REPRESENTATION ( #110, #197 ) ;
#95 = DIRECTION ( 'NONE',  ( 4.275831445896959482E-31, 1.000000000000000000, 1.224646799147353207E-16 ) ) ;
#96 = PRODUCT_DEFINITION_FORMATION_WITH_SPECIFIED_SOURCE ( 'ANY', '', #83, .NOT_KNOWN. ) ;
#97 = PERSON_AND_ORGANIZATION ( #30, #154 ) ;
#98 = ADVANCED_FACE ( 'NONE', ( #140 ), #194, .T. ) ;
#99 = CARTESIAN_POINT ( 'NONE',  ( 0.0000000000000000000, 0.0000000000000000000, 0.0000000000000000000 ) ) ;
#100 = CARTESIAN_POINT ( 'NONE',  ( 0.0000000000000000000, 0.0000000000000000000, 0.0000000000000000000 ) ) ;
#101 = FACE_OUTER_BOUND ( 'NONE', #165, .T. ) ;
#102 = SECURITY_CLASSIFICATION_LEVEL ( 'unclassified' ) ;
#103 = VERTEX_POINT ( 'NONE', #117 ) ;
#104 = PERSON_AND_ORGANIZATION_ROLE ( 'classification_officer' ) ;
#105 = APPROVAL_PERSON_ORGANIZATION ( #27, #146, #138 ) ;
#106 = CC_DESIGN_PERSON_AND_ORGANIZATION_ASSIGNMENT ( #38, #133, ( #83 ) ) ;
#107 = AXIS2_PLACEMENT_3D ( 'NONE', #100, #123, #185 ) ;
#108 = AXIS2_PLACEMENT_3D ( 'NONE', #142, #86, #143 ) ;
#109 = DATE_TIME_ROLE ( 'classification_date' ) ;
#110 = PRODUCT_DEFINITION_SHAPE ( 'NONE', 'NONE',  #173 ) ;
#111 = ORIENTED_EDGE ( 'NONE', *, *, #189, .F. ) ;
#112 = CC_DESIGN_APPROVAL ( #124, ( #96 ) ) ;
#113 = DIRECTION ( 'NONE',  ( -3.491481338843133355E-15, 1.224646799147353207E-16, -1.000000000000000000 ) ) ;
#114 =( NAMED_UNIT ( * ) PLANE_ANGLE_UNIT ( ) SI_UNIT ( $, .RADIAN. ) );
#115 = DIRECTION ( 'NONE',  ( 3.491481338843133355E-15, -1.224646799147353207E-16, 1.000000000000000000 ) ) ;
#116 = DATE_AND_TIME ( #88, #170 ) ;
#117 = CARTESIAN_POINT ( 'NONE',  ( 1.316288464743861212E-13, 1.499999999999994449, 37.69999999999999574 ) ) ;
#118 = APPROVAL_ROLE ( '' ) ;
#119 = DIRECTION ( 'NONE',  ( 0.0000000000000000000, 1.000000000000000000, 0.0000000000000000000 ) ) ;
#120 = LOCAL_TIME ( 11, 8, 59.00000000000000000, #158 ) ;
#121 = ADVANCED_FACE ( 'NONE', ( #101, #43 ), #4, .T. ) ;
#122 = EDGE_LOOP ( 'NONE', ( #168 ) ) ;
#123 = DIRECTION ( 'NONE',  ( -3.491481338843133355E-15, 1.224646799147353207E-16, -1.000000000000000000 ) ) ;
#124 = APPROVAL ( #144, 'UNSPECIFIED' ) ;
#125 = EDGE_LOOP ( 'NONE', ( #111 ) ) ;
#126 = ORIENTED_EDGE ( 'NONE', *, *, #75, .T. ) ;
#127 = CC_DESIGN_SECURITY_CLASSIFICATION ( #137, ( #96 ) ) ;
#128 = PERSON_AND_ORGANIZATION ( #30, #154 ) ;
#129 = DATE_AND_TIME ( #161, #200 ) ;
#130 = PERSON_AND_ORGANIZATION_ROLE ( 'creator' ) ;
#131 =( GEOMETRIC_REPRESENTATION_CONTEXT ( 3 ) GLOBAL_UNCERTAINTY_ASSIGNED_CONTEXT ( ( #62 ) ) GLOBAL_UNIT_ASSIGNED_CONTEXT ( ( #193, #114, #149 ) ) REPRESENTATION_CONTEXT ( 'NONE', 'WORKASPACE' ) );
#132 = CARTESIAN_POINT ( 'NONE',  ( 3.491481338843133355E-14, 1.499999999999998668, 10.00000000000000000 ) ) ;
#133 = PERSON_AND_ORGANIZATION_ROLE ( 'design_owner' ) ;
#134 = AXIS2_PLACEMENT_3D ( 'NONE', #190, #157, #69 ) ;
#135 = ORIENTED_EDGE ( 'NONE', *, *, #25, .T. ) ;
#136 = CALENDAR_DATE ( 2021, 12, 11 ) ;
#137 = SECURITY_CLASSIFICATION ( '', '', #102 ) ;
#138 = APPROVAL_ROLE ( '' ) ;
#139 = ADVANCED_FACE ( 'NONE', ( #90 ), #22, .T. ) ;
#140 = FACE_OUTER_BOUND ( 'NONE', #44, .T. ) ;
#141 = DIRECTION ( 'NONE',  ( 0.0000000000000000000, 1.000000000000000000, 0.0000000000000000000 ) ) ;
#142 = CARTESIAN_POINT ( 'NONE',  ( 1.326762908760390675E-13, -8.407708622083357709E-31, 38.00000000000000711 ) ) ;
#143 = DIRECTION ( 'NONE',  ( 4.275831445896958607E-31, 1.000000000000000000, 1.224646799147353207E-16 ) ) ;
#144 = APPROVAL_STATUS ( 'not_yet_approved' ) ;
#145 = PLANE ( 'NONE',  #108 ) ;
#146 = APPROVAL ( #167, 'UNSPECIFIED' ) ;
#147 = CC_DESIGN_PERSON_AND_ORGANIZATION_ASSIGNMENT ( #58, #176, ( #96 ) ) ;
#148 = DIRECTION ( 'NONE',  ( -4.275831445896958607E-31, -1.000000000000000000, -1.224646799147353207E-16 ) ) ;
#149 =( NAMED_UNIT ( * ) SI_UNIT ( $, .STERADIAN. ) SOLID_ANGLE_UNIT ( ) );
#150 = CIRCLE ( 'NONE', #93, 1.500000000000000000 ) ;
#151 = EDGE_LOOP ( 'NONE', ( #46 ) ) ;
#152 = APPROVAL ( #195, 'UNSPECIFIED' ) ;
#153 = CARTESIAN_POINT ( 'NONE',  ( 3.491481338843133355E-14, -1.224646799147353256E-15, 10.00000000000000000 ) ) ;
#154 = ORGANIZATION ( 'UNSPECIFIED', 'UNSPECIFIED', '' ) ;
#155 = COORDINATED_UNIVERSAL_TIME_OFFSET ( 1, 0, .AHEAD. ) ;
#156 = CARTESIAN_POINT ( 'NONE',  ( 1.316288464743861212E-13, -4.616918432785521081E-15, 37.69999999999999574 ) ) ;
#157 = DIRECTION ( 'NONE',  ( -3.491481338843133355E-15, 1.224646799147353207E-16, -1.000000000000000000 ) ) ;
#158 = COORDINATED_UNIVERSAL_TIME_OFFSET ( 1, 0, .AHEAD. ) ;
#159 = CC_DESIGN_PERSON_AND_ORGANIZATION_ASSIGNMENT ( #172, #72, ( #173 ) ) ;
#160 = CARTESIAN_POINT ( 'NONE',  ( 0.0000000000000000000, 0.0000000000000000000, 0.0000000000000000000 ) ) ;
#161 = CALENDAR_DATE ( 2021, 12, 11 ) ;
#162 = DIRECTION ( 'NONE',  ( -3.491481338843133355E-15, 1.224646799147353207E-16, -1.000000000000000000 ) ) ;
#163 = CARTESIAN_POINT ( 'NONE',  ( 3.491481338843133355E-14, 1.499999999999998668, 10.00000000000000000 ) ) ;
#164 = CIRCLE ( 'NONE', #53, 1.200000000000000844 ) ;
#165 = EDGE_LOOP ( 'NONE', ( #179 ) ) ;
#166 = AXIS2_PLACEMENT_3D ( 'NONE', #54, #113, #141 ) ;
#167 = APPROVAL_STATUS ( 'not_yet_approved' ) ;
#168 = ORIENTED_EDGE ( 'NONE', *, *, #25, .F. ) ;
#169 = FACE_OUTER_BOUND ( 'NONE', #45, .T. ) ;
#170 = LOCAL_TIME ( 11, 8, 59.00000000000000000, #20 ) ;
#171 = FACE_OUTER_BOUND ( 'NONE', #180, .T. ) ;
#172 = PERSON_AND_ORGANIZATION ( #30, #154 ) ;
#173 = PRODUCT_DEFINITION ( 'UNKNOWN', '', #96, #24 ) ;
#174 = AXIS2_PLACEMENT_3D ( 'NONE', #56, #10, #41 ) ;
#175 = DIRECTION ( 'NONE',  ( 1.000000000000000000, 0.0000000000000000000, 0.0000000000000000000 ) ) ;
#176 = PERSON_AND_ORGANIZATION_ROLE ( 'design_supplier' ) ;
#177 = VERTEX_POINT ( 'NONE', #89 ) ;
#178 = DIRECTION ( 'NONE',  ( 4.275831445896959482E-31, 1.000000000000000000, 1.224646799147353207E-16 ) ) ;
#179 = ORIENTED_EDGE ( 'NONE', *, *, #87, .T. ) ;
#180 = EDGE_LOOP ( 'NONE', ( #36 ) ) ;
#181 = CC_DESIGN_DATE_AND_TIME_ASSIGNMENT ( #116, #188, ( #173 ) ) ;
#182 = CC_DESIGN_APPROVAL ( #152, ( #173 ) ) ;
#183 = EDGE_LOOP ( 'NONE', ( #199 ) ) ;
#184 = CARTESIAN_POINT ( 'NONE',  ( -6.413747168845438786E-31, 2.249639673992786412E-32, -1.836970198721029934E-16 ) ) ;
#185 = DIRECTION ( 'NONE',  ( 4.275831445896958607E-31, 1.000000000000000000, 1.224646799147353207E-16 ) ) ;
#186 = LOCAL_TIME ( 11, 8, 59.00000000000000000, #155 ) ;
#187 = APPLICATION_CONTEXT ( 'configuration controlled 3d designs of mechanical parts and assemblies' ) ;
#188 = DATE_TIME_ROLE ( 'creation_date' ) ;
#189 = EDGE_CURVE ( 'NONE', #23, #23, #164, .T. ) ;
#190 = CARTESIAN_POINT ( 'NONE',  ( 1.326762908760390675E-13, -4.653657836759942730E-15, 38.00000000000000711 ) ) ;
#191 = APPROVAL_DATE_TIME ( #34, #152 ) ;
#192 = CARTESIAN_POINT ( 'NONE',  ( -3.206873584422719393E-31, 1.124819836996393206E-32, -9.184850993605149670E-17 ) ) ;
#193 =( LENGTH_UNIT ( ) NAMED_UNIT ( * ) SI_UNIT ( .MILLI., .METRE. ) );
#194 = PLANE ( 'NONE',  #68 ) ;
#195 = APPROVAL_STATUS ( 'not_yet_approved' ) ;
#196 = DIRECTION ( 'NONE',  ( -3.491481338843133355E-15, 1.224646799147353207E-16, -1.000000000000000000 ) ) ;
#197 = ADVANCED_BREP_SHAPE_REPRESENTATION ( '703', ( #202, #71, #81 ), #131 ) ;
#198 = ADVANCED_FACE ( 'NONE', ( #76 ), #59, .F. ) ;
#199 = ORIENTED_EDGE ( 'NONE', *, *, #189, .T. ) ;
#200 = LOCAL_TIME ( 11, 8, 59.00000000000000000, #55 ) ;
#201 = APPROVAL_DATE_TIME ( #28, #146 ) ;
#202 = MANIFOLD_SOLID_BREP ( 'Corps-Déplacer/Copier1[1]', #203 ) ;
#203 = CLOSED_SHELL ( 'NONE', ( #198, #11, #50, #29 ) ) ;
ENDSEC;
END-ISO-10303-21;
