ISO-10303-21;
HEADER;
FILE_DESCRIPTION (( 'STEP AP203' ),
    '1' );
FILE_NAME ('702.step',
    '2021-11-12T10:08:58',
    ( '' ),
    ( '' ),
    'SwSTEP 2.0',
    'SolidWorks 2019',
    '' );
FILE_SCHEMA (( 'CONFIG_CONTROL_DESIGN' ));
ENDSEC;

DATA;
#1 = MECHANICAL_CONTEXT ( 'NONE', #85, 'mechanical' ) ;
#2 = CALENDAR_DATE ( 2021, 12, 11 ) ;
#3 = EDGE_LOOP ( 'NONE', ( #131 ) ) ;
#4 = APPROVAL ( #77, 'UNSPECIFIED' ) ;
#5 = CIRCLE ( 'NONE', #145, 1.249999999999999778 ) ;
#6 = ORIENTED_EDGE ( 'NONE', *, *, #36, .T. ) ;
#7 = CYLINDRICAL_SURFACE ( 'NONE', #78, 1.250000000000000222 ) ;
#8 = AXIS2_PLACEMENT_3D ( 'NONE', #22, #159, #86 ) ;
#9 = DIRECTION ( 'NONE',  ( 4.275831445896958607E-31, 1.000000000000000000, 1.224646799147353207E-16 ) ) ;
#10 = DIRECTION ( 'NONE',  ( -3.491481338843133355E-15, 1.224646799147353207E-16, -1.000000000000000000 ) ) ;
#11 = FACE_OUTER_BOUND ( 'NONE', #189, .T. ) ;
#12 = APPROVAL ( #144, 'UNSPECIFIED' ) ;
#13 = DIRECTION ( 'NONE',  ( 0.0000000000000000000, 1.000000000000000000, 0.0000000000000000000 ) ) ;
#14 = COORDINATED_UNIVERSAL_TIME_OFFSET ( 1, 0, .AHEAD. ) ;
#15 = AXIS2_PLACEMENT_3D ( 'NONE', #57, #135, #146 ) ;
#16 = APPROVAL_ROLE ( '' ) ;
#17 = APPLICATION_PROTOCOL_DEFINITION ( 'international standard', 'config_control_design', 1994, #85 ) ;
#18 = APPLICATION_CONTEXT ( 'configuration controlled 3d designs of mechanical parts and assemblies' ) ;
#19 = APPROVAL_ROLE ( '' ) ;
#20 = CC_DESIGN_PERSON_AND_ORGANIZATION_ASSIGNMENT ( #182, #185, ( #97 ) ) ;
#21 = ORIENTED_EDGE ( 'NONE', *, *, #140, .F. ) ;
#22 = CARTESIAN_POINT ( 'NONE',  ( 2.793185071074506684E-14, -9.797174393178825657E-16, 8.000000000000000000 ) ) ;
#23 = FACE_OUTER_BOUND ( 'NONE', #53, .T. ) ;
#24 = CIRCLE ( 'NONE', #174, 1.250000000000000000 ) ;
#25 = DIRECTION ( 'NONE',  ( -3.491481338843133355E-15, 1.224646799147353207E-16, -1.000000000000000000 ) ) ;
#26 = DESIGN_CONTEXT ( 'detailed design', #18, 'design' ) ;
#27 = CARTESIAN_POINT ( 'NONE',  ( 1.117274028429802674E-13, -3.918869757271530263E-15, 32.00000000000000000 ) ) ;
#28 = CC_DESIGN_PERSON_AND_ORGANIZATION_ASSIGNMENT ( #79, #128, ( #38 ) ) ;
#29 = CARTESIAN_POINT ( 'NONE',  ( 1.106799584413273463E-13, -3.882130353297110981E-15, 31.70000000000000639 ) ) ;
#30 = PERSON_AND_ORGANIZATION ( #61, #162 ) ;
#31 = CARTESIAN_POINT ( 'NONE',  ( 0.0000000000000000000, 0.0000000000000000000, 0.0000000000000000000 ) ) ;
#32 = PRODUCT_RELATED_PRODUCT_CATEGORY ( 'detail', '', ( #97 ) ) ;
#33 = PERSON_AND_ORGANIZATION ( #61, #162 ) ;
#34 = APPROVAL_PERSON_ORGANIZATION ( #58, #4, #166 ) ;
#36 = EDGE_CURVE ( 'NONE', #132, #132, #114, .T. ) ;
#35 = PERSON_AND_ORGANIZATION ( #61, #162 ) ;
#37 = ORIENTED_EDGE ( 'NONE', *, *, #140, .T. ) ;
#38 = SECURITY_CLASSIFICATION ( '', '', #50 ) ;
#39 = ORIENTED_EDGE ( 'NONE', *, *, #36, .F. ) ;
#40 = DIRECTION ( 'NONE',  ( 4.275831445896958607E-31, 1.000000000000000000, 1.224646799147353207E-16 ) ) ;
#41 = CARTESIAN_POINT ( 'NONE',  ( 2.793185071074506684E-14, 9.373498641636596364E-33, 8.000000000000000000 ) ) ;
#42 = FACE_OUTER_BOUND ( 'NONE', #69, .T. ) ;
#43 = CARTESIAN_POINT ( 'NONE',  ( 2.793185071074506684E-14, 1.249999999999999112, 8.000000000000000000 ) ) ;
#44 = APPROVAL_DATE_TIME ( #200, #12 ) ;
#45 = EDGE_CURVE ( 'NONE', #105, #105, #5, .T. ) ;
#46 = AXIS2_PLACEMENT_3D ( 'NONE', #71, #179, #151 ) ;
#47 = SHAPE_DEFINITION_REPRESENTATION ( #181, #192 ) ;
#48 = CC_DESIGN_DATE_AND_TIME_ASSIGNMENT ( #168, #96, ( #38 ) ) ;
#49 = PERSON_AND_ORGANIZATION_ROLE ( 'creator' ) ;
#50 = SECURITY_CLASSIFICATION_LEVEL ( 'unclassified' ) ;
#51 = COORDINATED_UNIVERSAL_TIME_OFFSET ( 1, 0, .AHEAD. ) ;
#52 = CC_DESIGN_APPROVAL ( #12, ( #38 ) ) ;
#53 = EDGE_LOOP ( 'NONE', ( #39 ) ) ;
#54 = FACE_OUTER_BOUND ( 'NONE', #129, .T. ) ;
#55 = FACE_OUTER_BOUND ( 'NONE', #82, .T. ) ;
#56 = DIRECTION ( 'NONE',  ( 0.0000000000000000000, 1.000000000000000000, 0.0000000000000000000 ) ) ;
#57 = CARTESIAN_POINT ( 'NONE',  ( 0.0000000000000000000, 0.0000000000000000000, 0.0000000000000000000 ) ) ;
#58 = PERSON_AND_ORGANIZATION ( #61, #162 ) ;
#59 = CALENDAR_DATE ( 2021, 12, 11 ) ;
#60 = AXIS2_PLACEMENT_3D ( 'NONE', #41, #109, #190 ) ;
#61 = PERSON ( 'UNSPECIFIED', 'UNSPECIFIED', 'UNSPECIFIED', ('UNSPECIFIED'), ('UNSPECIFIED'), ('UNSPECIFIED') ) ;
#62 = CC_DESIGN_PERSON_AND_ORGANIZATION_ASSIGNMENT ( #33, #186, ( #83 ) ) ;
#63 = AXIS2_PLACEMENT_3D ( 'NONE', #27, #122, #56 ) ;
#64 = PERSON_AND_ORGANIZATION_ROLE ( 'creator' ) ;
#65 = MANIFOLD_SOLID_BREP ( 'Corps-Déplacer/Copier1[1]', #183 ) ;
#66 = DATE_AND_TIME ( #92, #99 ) ;
#67 = ORIENTED_EDGE ( 'NONE', *, *, #102, .F. ) ;
#68 = LOCAL_TIME ( 11, 8, 58.00000000000000000, #51 ) ;
#69 = EDGE_LOOP ( 'NONE', ( #100 ) ) ;
#70 = AXIS2_PLACEMENT_3D ( 'NONE', #164, #118, #13 ) ;
#71 = CARTESIAN_POINT ( 'NONE',  ( 1.117274028429802674E-13, -3.918869757271530263E-15, 32.00000000000000000 ) ) ;
#72 = DIRECTION ( 'NONE',  ( -4.275831445896958607E-31, -1.000000000000000000, -1.224646799147353207E-16 ) ) ;
#73 = ADVANCED_FACE ( 'NONE', ( #74, #11 ), #139, .T. ) ;
#74 = FACE_OUTER_BOUND ( 'NONE', #3, .T. ) ;
#75 = FACE_OUTER_BOUND ( 'NONE', #98, .T. ) ;
#76 = CARTESIAN_POINT ( 'NONE',  ( -2.672394653685598910E-31, 9.373498641636610049E-33, -7.654042494670957853E-17 ) ) ;
#77 = APPROVAL_STATUS ( 'not_yet_approved' ) ;
#78 = AXIS2_PLACEMENT_3D ( 'NONE', #149, #25, #9 ) ;
#79 = PERSON_AND_ORGANIZATION ( #61, #162 ) ;
#80 = APPROVAL_STATUS ( 'not_yet_approved' ) ;
#81 = ORIENTED_EDGE ( 'NONE', *, *, #107, .F. ) ;
#82 = EDGE_LOOP ( 'NONE', ( #81 ) ) ;
#83 = PRODUCT_DEFINITION_FORMATION_WITH_SPECIFIED_SOURCE ( 'ANY', '', #97, .NOT_KNOWN. ) ;
#84 = CC_DESIGN_PERSON_AND_ORGANIZATION_ASSIGNMENT ( #127, #49, ( #83 ) ) ;
#85 = APPLICATION_CONTEXT ( 'configuration controlled 3d designs of mechanical parts and assemblies' ) ;
#86 = DIRECTION ( 'NONE',  ( 0.0000000000000000000, 1.000000000000000000, 0.0000000000000000000 ) ) ;
#87 = CARTESIAN_POINT ( 'NONE',  ( 2.793185071074506684E-14, 9.373498641636596364E-33, 8.000000000000000000 ) ) ;
#88 = CC_DESIGN_APPROVAL ( #136, ( #83 ) ) ;
#89 = DIRECTION ( 'NONE',  ( 0.0000000000000000000, 1.000000000000000000, 0.0000000000000000000 ) ) ;
#90 = PLANE ( 'NONE',  #173 ) ;
#91 = CARTESIAN_POINT ( 'NONE',  ( 0.0000000000000000000, 1.250000000000000000, 0.0000000000000000000 ) ) ;
#92 = CALENDAR_DATE ( 2021, 12, 11 ) ;
#93 = CC_DESIGN_SECURITY_CLASSIFICATION ( #38, ( #83 ) ) ;
#94 = DATE_AND_TIME ( #155, #169 ) ;
#95 = CLOSED_SHELL ( 'NONE', ( #119, #171, #110 ) ) ;
#96 = DATE_TIME_ROLE ( 'classification_date' ) ;
#97 = PRODUCT ( '702', '702', '', ( #1 ) ) ;
#98 = EDGE_LOOP ( 'NONE', ( #21 ) ) ;
#99 = LOCAL_TIME ( 11, 8, 58.00000000000000000, #187 ) ;
#100 = ORIENTED_EDGE ( 'NONE', *, *, #107, .T. ) ;
#101 = PLANE ( 'NONE',  #160 ) ;
#102 = EDGE_CURVE ( 'NONE', #193, #193, #130, .T. ) ;
#103 =( LENGTH_UNIT ( ) NAMED_UNIT ( * ) SI_UNIT ( .MILLI., .METRE. ) );
#104 = LOCAL_TIME ( 11, 8, 58.00000000000000000, #141 ) ;
#105 = VERTEX_POINT ( 'NONE', #180 ) ;
#106 = UNCERTAINTY_MEASURE_WITH_UNIT (LENGTH_MEASURE( 1.000000000000000082E-05 ), #103, 'distance_accuracy_value', 'NONE');
#107 = EDGE_CURVE ( 'NONE', #120, #120, #24, .T. ) ;
#108 = PLANE ( 'NONE',  #196 ) ;
#109 = DIRECTION ( 'NONE',  ( 3.491481338843133355E-15, -1.224646799147353207E-16, 1.000000000000000000 ) ) ;
#110 = ADVANCED_FACE ( 'NONE', ( #23 ), #176, .T. ) ;
#111 = AXIS2_PLACEMENT_3D ( 'NONE', #31, #142, #112 ) ;
#112 = DIRECTION ( 'NONE',  ( 1.000000000000000000, 0.0000000000000000000, 0.0000000000000000000 ) ) ;
#113 =( NAMED_UNIT ( * ) SI_UNIT ( $, .STERADIAN. ) SOLID_ANGLE_UNIT ( ) );
#114 = CIRCLE ( 'NONE', #8, 1.250000000000000222 ) ;
#115 = CALENDAR_DATE ( 2021, 12, 11 ) ;
#116 = EDGE_LOOP ( 'NONE', ( #143 ) ) ;
#117 = EDGE_LOOP ( 'NONE', ( #6 ) ) ;
#118 = DIRECTION ( 'NONE',  ( -3.491481338843133355E-15, 1.224646799147353207E-16, -1.000000000000000000 ) ) ;
#119 = ADVANCED_FACE ( 'NONE', ( #42 ), #108, .T. ) ;
#120 = VERTEX_POINT ( 'NONE', #91 ) ;
#121 = DIRECTION ( 'NONE',  ( 4.275831445896958607E-31, 1.000000000000000000, 1.224646799147353207E-16 ) ) ;
#122 = DIRECTION ( 'NONE',  ( -3.491481338843133355E-15, 1.224646799147353207E-16, -1.000000000000000000 ) ) ;
#123 = DIRECTION ( 'NONE',  ( -3.491481338843133355E-15, 1.224646799147353207E-16, -1.000000000000000000 ) ) ;
#124 = PERSON_AND_ORGANIZATION ( #61, #162 ) ;
#125 = CONICAL_SURFACE ( 'NONE', #46, 0.9500000000000033973, 0.7853981633974511656 ) ;
#126 = DATE_TIME_ROLE ( 'creation_date' ) ;
#127 = PERSON_AND_ORGANIZATION ( #61, #162 ) ;
#128 = PERSON_AND_ORGANIZATION_ROLE ( 'classification_officer' ) ;
#129 = EDGE_LOOP ( 'NONE', ( #157 ) ) ;
#130 = CIRCLE ( 'NONE', #70, 1.250000000000000222 ) ;
#131 = ORIENTED_EDGE ( 'NONE', *, *, #45, .T. ) ;
#132 = VERTEX_POINT ( 'NONE', #133 ) ;
#133 = CARTESIAN_POINT ( 'NONE',  ( 2.793185071074506684E-14, 1.249999999999999112, 8.000000000000000000 ) ) ;
#134 = CC_DESIGN_DATE_AND_TIME_ASSIGNMENT ( #66, #126, ( #191 ) ) ;
#135 = DIRECTION ( 'NONE',  ( -3.491481338843133355E-15, 1.224646799147353207E-16, -1.000000000000000000 ) ) ;
#136 = APPROVAL ( #80, 'UNSPECIFIED' ) ;
#137 = APPROVAL_PERSON_ORGANIZATION ( #124, #12, #19 ) ;
#138 = FACE_OUTER_BOUND ( 'NONE', #116, .T. ) ;
#139 = CYLINDRICAL_SURFACE ( 'NONE', #15, 1.250000000000000000 ) ;
#140 = EDGE_CURVE ( 'NONE', #163, #163, #178, .T. ) ;
#141 = COORDINATED_UNIVERSAL_TIME_OFFSET ( 1, 0, .AHEAD. ) ;
#142 = DIRECTION ( 'NONE',  ( 0.0000000000000000000, 0.0000000000000000000, 1.000000000000000000 ) ) ;
#143 = ORIENTED_EDGE ( 'NONE', *, *, #102, .T. ) ;
#144 = APPROVAL_STATUS ( 'not_yet_approved' ) ;
#145 = AXIS2_PLACEMENT_3D ( 'NONE', #29, #150, #89 ) ;
#146 = DIRECTION ( 'NONE',  ( 4.275831445896958607E-31, 1.000000000000000000, 1.224646799147353207E-16 ) ) ;
#147 = CC_DESIGN_APPROVAL ( #4, ( #191 ) ) ;
#148 = ADVANCED_FACE ( 'NONE', ( #75 ), #101, .F. ) ;
#149 = CARTESIAN_POINT ( 'NONE',  ( 0.0000000000000000000, 0.0000000000000000000, 0.0000000000000000000 ) ) ;
#150 = DIRECTION ( 'NONE',  ( -3.491481338843133355E-15, 1.224646799147353207E-16, -1.000000000000000000 ) ) ;
#151 = DIRECTION ( 'NONE',  ( 0.0000000000000000000, 1.000000000000000000, 0.0000000000000000000 ) ) ;
#152 = CARTESIAN_POINT ( 'NONE',  ( 1.117274028429802674E-13, 0.9499999999999995115, 32.00000000000000000 ) ) ;
#153 = APPROVAL_PERSON_ORGANIZATION ( #35, #136, #16 ) ;
#154 = DATE_AND_TIME ( #2, #104 ) ;
#155 = CALENDAR_DATE ( 2021, 12, 11 ) ;
#156 = APPROVAL_DATE_TIME ( #94, #136 ) ;
#157 = ORIENTED_EDGE ( 'NONE', *, *, #45, .F. ) ;
#158 = APPROVAL_DATE_TIME ( #154, #4 ) ;
#159 = DIRECTION ( 'NONE',  ( -3.491481338843133355E-15, 1.224646799147353207E-16, -1.000000000000000000 ) ) ;
#160 = AXIS2_PLACEMENT_3D ( 'NONE', #165, #123, #161 ) ;
#161 = DIRECTION ( 'NONE',  ( 4.275831445896958607E-31, 1.000000000000000000, 1.224646799147353207E-16 ) ) ;
#162 = ORGANIZATION ( 'UNSPECIFIED', 'UNSPECIFIED', '' ) ;
#163 = VERTEX_POINT ( 'NONE', #152 ) ;
#164 = CARTESIAN_POINT ( 'NONE',  ( 2.793185071074506684E-14, -9.797174393178825657E-16, 8.000000000000000000 ) ) ;
#165 = CARTESIAN_POINT ( 'NONE',  ( 1.117274028429802674E-13, 7.123858967643790794E-33, 32.00000000000000000 ) ) ;
#166 = APPROVAL_ROLE ( '' ) ;
#167 = ADVANCED_FACE ( 'NONE', ( #138 ), #90, .F. ) ;
#168 = DATE_AND_TIME ( #59, #201 ) ;
#169 = LOCAL_TIME ( 11, 8, 58.00000000000000000, #14 ) ;
#170 = COORDINATED_UNIVERSAL_TIME_OFFSET ( 1, 0, .AHEAD. ) ;
#171 = ADVANCED_FACE ( 'NONE', ( #177, #55 ), #7, .T. ) ;
#172 = EDGE_LOOP ( 'NONE', ( #37 ) ) ;
#173 = AXIS2_PLACEMENT_3D ( 'NONE', #87, #195, #72 ) ;
#174 = AXIS2_PLACEMENT_3D ( 'NONE', #199, #10, #121 ) ;
#175 = DIRECTION ( 'NONE',  ( -3.491481338843133355E-15, 1.224646799147353207E-16, -1.000000000000000000 ) ) ;
#176 = PLANE ( 'NONE',  #60 ) ;
#177 = FACE_OUTER_BOUND ( 'NONE', #117, .T. ) ;
#178 = CIRCLE ( 'NONE', #63, 0.9500000000000033973 ) ;
#179 = DIRECTION ( 'NONE',  ( -3.491481338843133355E-15, 1.224646799147353207E-16, -1.000000000000000000 ) ) ;
#180 = CARTESIAN_POINT ( 'NONE',  ( 1.106799584413273463E-13, 1.249999999999996003, 31.70000000000000639 ) ) ;
#181 = PRODUCT_DEFINITION_SHAPE ( 'NONE', 'NONE',  #191 ) ;
#182 = PERSON_AND_ORGANIZATION ( #61, #162 ) ;
#183 = CLOSED_SHELL ( 'NONE', ( #167, #73, #202, #148 ) ) ;
#184 = APPLICATION_PROTOCOL_DEFINITION ( 'international standard', 'config_control_design', 1994, #18 ) ;
#185 = PERSON_AND_ORGANIZATION_ROLE ( 'design_owner' ) ;
#186 = PERSON_AND_ORGANIZATION_ROLE ( 'design_supplier' ) ;
#187 = COORDINATED_UNIVERSAL_TIME_OFFSET ( 1, 0, .AHEAD. ) ;
#188 =( GEOMETRIC_REPRESENTATION_CONTEXT ( 3 ) GLOBAL_UNCERTAINTY_ASSIGNED_CONTEXT ( ( #106 ) ) GLOBAL_UNIT_ASSIGNED_CONTEXT ( ( #103, #203, #113 ) ) REPRESENTATION_CONTEXT ( 'NONE', 'WORKASPACE' ) );
#189 = EDGE_LOOP ( 'NONE', ( #67 ) ) ;
#190 = DIRECTION ( 'NONE',  ( -4.275831445896958607E-31, -1.000000000000000000, -1.224646799147353207E-16 ) ) ;
#191 = PRODUCT_DEFINITION ( 'UNKNOWN', '', #83, #26 ) ;
#192 = ADVANCED_BREP_SHAPE_REPRESENTATION ( '702', ( #65, #194, #111 ), #188 ) ;
#193 = VERTEX_POINT ( 'NONE', #43 ) ;
#194 = MANIFOLD_SOLID_BREP ( 'Corps-Déplacer/Copier1[2]', #95 ) ;
#195 = DIRECTION ( 'NONE',  ( 3.491481338843133355E-15, -1.224646799147353207E-16, 1.000000000000000000 ) ) ;
#196 = AXIS2_PLACEMENT_3D ( 'NONE', #76, #175, #40 ) ;
#197 = CC_DESIGN_PERSON_AND_ORGANIZATION_ASSIGNMENT ( #30, #64, ( #191 ) ) ;
#198 = FACE_BOUND ( 'NONE', #172, .T. ) ;
#199 = CARTESIAN_POINT ( 'NONE',  ( -5.344789307371197820E-31, 1.874699728327322010E-32, -1.530808498934191571E-16 ) ) ;
#200 = DATE_AND_TIME ( #115, #68 ) ;
#201 = LOCAL_TIME ( 11, 8, 58.00000000000000000, #170 ) ;
#202 = ADVANCED_FACE ( 'NONE', ( #54, #198 ), #125, .T. ) ;
#203 =( NAMED_UNIT ( * ) PLANE_ANGLE_UNIT ( ) SI_UNIT ( $, .RADIAN. ) );
ENDSEC;
END-ISO-10303-21;
