ISO-10303-21;
HEADER;
FILE_DESCRIPTION (( 'STEP AP203' ),
    '1' );
FILE_NAME ('701.step',
    '2021-11-12T10:08:58',
    ( '' ),
    ( '' ),
    'SwSTEP 2.0',
    'SolidWorks 2019',
    '' );
FILE_SCHEMA (( 'CONFIG_CONTROL_DESIGN' ));
ENDSEC;

DATA;
#1 = CC_DESIGN_APPROVAL ( #48, ( #189 ) ) ;
#2 = ORIENTED_EDGE ( 'NONE', *, *, #191, .F. ) ;
#3 = CC_DESIGN_PERSON_AND_ORGANIZATION_ASSIGNMENT ( #170, #95, ( #19 ) ) ;
#4 = DIRECTION ( 'NONE',  ( 0.0000000000000000000, 1.000000000000000000, 0.0000000000000000000 ) ) ;
#5 = ORIENTED_EDGE ( 'NONE', *, *, #100, .T. ) ;
#6 = CARTESIAN_POINT ( 'NONE',  ( -4.275831445896957731E-31, 1.499759782661857608E-32, -1.224646799147353207E-16 ) ) ;
#7 = VERTEX_POINT ( 'NONE', #72 ) ;
#8 = FACE_OUTER_BOUND ( 'NONE', #140, .T. ) ;
#9 = CARTESIAN_POINT ( 'NONE',  ( 1.117274028429802674E-13, -3.918869757271530263E-15, 32.00000000000000000 ) ) ;
#10 = PLANE ( 'NONE',  #60 ) ;
#11 = EDGE_LOOP ( 'NONE', ( #5 ) ) ;
#12 = APPROVAL ( #87, 'UNSPECIFIED' ) ;
#13 = APPROVAL_PERSON_ORGANIZATION ( #157, #12, #200 ) ;
#14 = SHAPE_DEFINITION_REPRESENTATION ( #85, #156 ) ;
#15 = PERSON_AND_ORGANIZATION ( #147, #127 ) ;
#16 = APPROVAL_PERSON_ORGANIZATION ( #166, #125, #134 ) ;
#17 = DESIGN_CONTEXT ( 'detailed design', #61, 'design' ) ;
#18 = ORIENTED_EDGE ( 'NONE', *, *, #191, .T. ) ;
#19 = PRODUCT_DEFINITION_FORMATION_WITH_SPECIFIED_SOURCE ( 'ANY', '', #175, .NOT_KNOWN. ) ;
#20 = ORIENTED_EDGE ( 'NONE', *, *, #52, .T. ) ;
#21 = DIRECTION ( 'NONE',  ( -4.275831445896958607E-31, -1.000000000000000000, -1.224646799147353207E-16 ) ) ;
#22 = COORDINATED_UNIVERSAL_TIME_OFFSET ( 1, 0, .AHEAD. ) ;
#23 = CC_DESIGN_PERSON_AND_ORGANIZATION_ASSIGNMENT ( #74, #120, ( #175 ) ) ;
#24 = DIRECTION ( 'NONE',  ( 1.000000000000000000, 0.0000000000000000000, 0.0000000000000000000 ) ) ;
#25 = APPROVAL_PERSON_ORGANIZATION ( #183, #48, #129 ) ;
#26 = DIRECTION ( 'NONE',  ( 0.0000000000000000000, 1.000000000000000000, 0.0000000000000000000 ) ) ;
#27 = FACE_BOUND ( 'NONE', #144, .T. ) ;
#28 = CARTESIAN_POINT ( 'NONE',  ( 1.117274028429802674E-13, 0.6999999999999992895, 32.00000000000000000 ) ) ;
#29 = CYLINDRICAL_SURFACE ( 'NONE', #149, 1.000000000000000000 ) ;
#30 = DATE_AND_TIME ( #187, #113 ) ;
#31 = AXIS2_PLACEMENT_3D ( 'NONE', #62, #89, #75 ) ;
#32 = ADVANCED_FACE ( 'NONE', ( #79, #58 ), #91, .T. ) ;
#33 = AXIS2_PLACEMENT_3D ( 'NONE', #6, #161, #59 ) ;
#34 = COORDINATED_UNIVERSAL_TIME_OFFSET ( 1, 0, .AHEAD. ) ;
#35 = EDGE_LOOP ( 'NONE', ( #20 ) ) ;
#36 = MANIFOLD_SOLID_BREP ( 'Corps-Déplacer/Copier1[2]', #152 ) ;
#37 = VERTEX_POINT ( 'NONE', #146 ) ;
#38 = CARTESIAN_POINT ( 'NONE',  ( 2.793185071074506684E-14, 0.9999999999999988898, 8.000000000000000000 ) ) ;
#39 = CARTESIAN_POINT ( 'NONE',  ( -2.137915722948478865E-31, 7.498798913309288039E-33, -6.123233995736766036E-17 ) ) ;
#40 = APPROVAL_STATUS ( 'not_yet_approved' ) ;
#41 = DIRECTION ( 'NONE',  ( -3.491481338843133355E-15, 1.224646799147353207E-16, -1.000000000000000000 ) ) ;
#42 = ADVANCED_FACE ( 'NONE', ( #201, #27 ), #71, .T. ) ;
#43 = DIRECTION ( 'NONE',  ( -3.491481338843133355E-15, 1.224646799147353207E-16, -1.000000000000000000 ) ) ;
#44 = DIRECTION ( 'NONE',  ( 4.275831445896958607E-31, 1.000000000000000000, 1.224646799147353207E-16 ) ) ;
#45 = DATE_AND_TIME ( #169, #94 ) ;
#46 = APPROVAL_STATUS ( 'not_yet_approved' ) ;
#47 = CC_DESIGN_APPROVAL ( #125, ( #154 ) ) ;
#48 = APPROVAL ( #40, 'UNSPECIFIED' ) ;
#49 = DIRECTION ( 'NONE',  ( -3.491481338843133355E-15, 1.224646799147353207E-16, -1.000000000000000000 ) ) ;
#50 = AXIS2_PLACEMENT_3D ( 'NONE', #184, #41, #77 ) ;
#51 = CARTESIAN_POINT ( 'NONE',  ( 2.793185071074506684E-14, -9.797174393178825657E-16, 8.000000000000000000 ) ) ;
#52 = EDGE_CURVE ( 'NONE', #7, #7, #172, .T. ) ;
#53 = AXIS2_PLACEMENT_3D ( 'NONE', #193, #54, #24 ) ;
#54 = DIRECTION ( 'NONE',  ( 0.0000000000000000000, 0.0000000000000000000, 1.000000000000000000 ) ) ;
#55 = CALENDAR_DATE ( 2021, 12, 11 ) ;
#56 = DIRECTION ( 'NONE',  ( -3.491481338843133355E-15, 1.224646799147353207E-16, -1.000000000000000000 ) ) ;
#57 = PERSON_AND_ORGANIZATION ( #147, #127 ) ;
#58 = FACE_OUTER_BOUND ( 'NONE', #67, .T. ) ;
#59 = DIRECTION ( 'NONE',  ( 4.275831445896958607E-31, 1.000000000000000000, 1.224646799147353207E-16 ) ) ;
#60 = AXIS2_PLACEMENT_3D ( 'NONE', #39, #142, #44 ) ;
#61 = APPLICATION_CONTEXT ( 'configuration controlled 3d designs of mechanical parts and assemblies' ) ;
#62 = CARTESIAN_POINT ( 'NONE',  ( 1.106799584413273463E-13, -3.882130353297110981E-15, 31.70000000000000639 ) ) ;
#63 = PERSON_AND_ORGANIZATION_ROLE ( 'creator' ) ;
#64 = ADVANCED_FACE ( 'NONE', ( #131 ), #10, .T. ) ;
#65 = CALENDAR_DATE ( 2021, 12, 11 ) ;
#66 = PRODUCT_RELATED_PRODUCT_CATEGORY ( 'detail', '', ( #175 ) ) ;
#67 = EDGE_LOOP ( 'NONE', ( #118 ) ) ;
#68 = ORIENTED_EDGE ( 'NONE', *, *, #82, .T. ) ;
#69 = ADVANCED_FACE ( 'NONE', ( #179 ), #80, .F. ) ;
#70 = FACE_OUTER_BOUND ( 'NONE', #126, .T. ) ;
#71 = CONICAL_SURFACE ( 'NONE', #101, 0.7000000000000031752, 0.7853981633974540522 ) ;
#72 = CARTESIAN_POINT ( 'NONE',  ( 1.106799584413273463E-13, 0.9999999999999974465, 31.70000000000000639 ) ) ;
#73 = DIRECTION ( 'NONE',  ( -3.491481338843133355E-15, 1.224646799147353207E-16, -1.000000000000000000 ) ) ;
#74 = PERSON_AND_ORGANIZATION ( #147, #127 ) ;
#75 = DIRECTION ( 'NONE',  ( 0.0000000000000000000, 1.000000000000000000, 0.0000000000000000000 ) ) ;
#76 = CARTESIAN_POINT ( 'NONE',  ( 2.793185071074506684E-14, -9.797174393178825657E-16, 8.000000000000000000 ) ) ;
#77 = DIRECTION ( 'NONE',  ( 4.275831445896958607E-31, 1.000000000000000000, 1.224646799147353454E-16 ) ) ;
#78 = DATE_AND_TIME ( #163, #135 ) ;
#79 = FACE_OUTER_BOUND ( 'NONE', #35, .T. ) ;
#80 = PLANE ( 'NONE',  #167 ) ;
#81 = COORDINATED_UNIVERSAL_TIME_OFFSET ( 1, 0, .AHEAD. ) ;
#82 = EDGE_CURVE ( 'NONE', #145, #145, #83, .T. ) ;
#83 = CIRCLE ( 'NONE', #115, 0.7000000000000031752 ) ;
#84 = ORIENTED_EDGE ( 'NONE', *, *, #82, .F. ) ;
#85 = PRODUCT_DEFINITION_SHAPE ( 'NONE', 'NONE',  #189 ) ;
#86 = FACE_OUTER_BOUND ( 'NONE', #164, .T. ) ;
#87 = APPROVAL_STATUS ( 'not_yet_approved' ) ;
#88 = DIRECTION ( 'NONE',  ( -3.491481338843133355E-15, 1.224646799147353207E-16, -1.000000000000000000 ) ) ;
#89 = DIRECTION ( 'NONE',  ( -3.491481338843133355E-15, 1.224646799147353207E-16, -1.000000000000000000 ) ) ;
#90 = FACE_OUTER_BOUND ( 'NONE', #133, .T. ) ;
#91 = CYLINDRICAL_SURFACE ( 'NONE', #50, 1.000000000000000666 ) ;
#92 = DATE_AND_TIME ( #55, #177 ) ;
#93 = CARTESIAN_POINT ( 'NONE',  ( 0.0000000000000000000, 0.0000000000000000000, 0.0000000000000000000 ) ) ;
#94 = LOCAL_TIME ( 11, 8, 58.00000000000000000, #81 ) ;
#95 = PERSON_AND_ORGANIZATION_ROLE ( 'design_supplier' ) ;
#96 = CC_DESIGN_PERSON_AND_ORGANIZATION_ASSIGNMENT ( #15, #63, ( #19 ) ) ;
#97 = AXIS2_PLACEMENT_3D ( 'NONE', #76, #88, #4 ) ;
#98 = CIRCLE ( 'NONE', #190, 1.000000000000000000 ) ;
#99 = ADVANCED_FACE ( 'NONE', ( #86, #90 ), #29, .T. ) ;
#100 = EDGE_CURVE ( 'NONE', #197, #197, #98, .T. ) ;
#101 = AXIS2_PLACEMENT_3D ( 'NONE', #9, #43, #108 ) ;
#102 = DATE_TIME_ROLE ( 'creation_date' ) ;
#103 = MANIFOLD_SOLID_BREP ( 'Corps-Déplacer/Copier1[1]', #141 ) ;
#104 = APPLICATION_PROTOCOL_DEFINITION ( 'international standard', 'config_control_design', 1994, #198 ) ;
#105 =( LENGTH_UNIT ( ) NAMED_UNIT ( * ) SI_UNIT ( .MILLI., .METRE. ) );
#106 = CIRCLE ( 'NONE', #33, 1.000000000000000000 ) ;
#107 = ORIENTED_EDGE ( 'NONE', *, *, #52, .F. ) ;
#108 = DIRECTION ( 'NONE',  ( 0.0000000000000000000, 1.000000000000000000, 0.0000000000000000000 ) ) ;
#109 = CARTESIAN_POINT ( 'NONE',  ( 2.793185071074506684E-14, 7.498798913309274355E-33, 8.000000000000000000 ) ) ;
#110 = SECURITY_CLASSIFICATION_LEVEL ( 'unclassified' ) ;
#111 = APPROVAL_DATE_TIME ( #45, #12 ) ;
#112 = LOCAL_TIME ( 11, 8, 58.00000000000000000, #123 ) ;
#113 = LOCAL_TIME ( 11, 8, 58.00000000000000000, #203 ) ;
#114 = DIRECTION ( 'NONE',  ( -4.275831445896958607E-31, -1.000000000000000000, -1.224646799147353207E-16 ) ) ;
#115 = AXIS2_PLACEMENT_3D ( 'NONE', #128, #73, #26 ) ;
#116 = CARTESIAN_POINT ( 'NONE',  ( 2.793185071074506684E-14, 7.498798913309274355E-33, 8.000000000000000000 ) ) ;
#117 = PERSON_AND_ORGANIZATION_ROLE ( 'creator' ) ;
#118 = ORIENTED_EDGE ( 'NONE', *, *, #100, .F. ) ;
#119 = DIRECTION ( 'NONE',  ( 3.491481338843133355E-15, -1.224646799147353207E-16, 1.000000000000000000 ) ) ;
#120 = PERSON_AND_ORGANIZATION_ROLE ( 'design_owner' ) ;
#121 = CC_DESIGN_DATE_AND_TIME_ASSIGNMENT ( #78, #102, ( #189 ) ) ;
#122 = EDGE_LOOP ( 'NONE', ( #148 ) ) ;
#123 = COORDINATED_UNIVERSAL_TIME_OFFSET ( 1, 0, .AHEAD. ) ;
#124 = AXIS2_PLACEMENT_3D ( 'NONE', #153, #49, #137 ) ;
#125 = APPROVAL ( #46, 'UNSPECIFIED' ) ;
#126 = EDGE_LOOP ( 'NONE', ( #2 ) ) ;
#127 = ORGANIZATION ( 'UNSPECIFIED', 'UNSPECIFIED', '' ) ;
#128 = CARTESIAN_POINT ( 'NONE',  ( 1.117274028429802674E-13, -3.918869757271530263E-15, 32.00000000000000000 ) ) ;
#129 = APPROVAL_ROLE ( '' ) ;
#130 = DIRECTION ( 'NONE',  ( -3.491481338843133355E-15, 1.224646799147353207E-16, -1.000000000000000000 ) ) ;
#131 = FACE_OUTER_BOUND ( 'NONE', #122, .T. ) ;
#132 = PLANE ( 'NONE',  #124 ) ;
#133 = EDGE_LOOP ( 'NONE', ( #155 ) ) ;
#134 = APPROVAL_ROLE ( '' ) ;
#135 = LOCAL_TIME ( 11, 8, 58.00000000000000000, #22 ) ;
#136 = CC_DESIGN_PERSON_AND_ORGANIZATION_ASSIGNMENT ( #57, #117, ( #189 ) ) ;
#137 = DIRECTION ( 'NONE',  ( 4.275831445896958607E-31, 1.000000000000000000, 1.224646799147353207E-16 ) ) ;
#138 = DIRECTION ( 'NONE',  ( 0.0000000000000000000, 1.000000000000000000, 0.0000000000000000000 ) ) ;
#139 = MECHANICAL_CONTEXT ( 'NONE', #198, 'mechanical' ) ;
#140 = EDGE_LOOP ( 'NONE', ( #84 ) ) ;
#141 = CLOSED_SHELL ( 'NONE', ( #69, #32, #42, #162 ) ) ;
#142 = DIRECTION ( 'NONE',  ( -3.491481338843133355E-15, 1.224646799147353207E-16, -1.000000000000000000 ) ) ;
#143 = PLANE ( 'NONE',  #188 ) ;
#144 = EDGE_LOOP ( 'NONE', ( #68 ) ) ;
#145 = VERTEX_POINT ( 'NONE', #28 ) ;
#146 = CARTESIAN_POINT ( 'NONE',  ( 2.793185071074506684E-14, 0.9999999999999988898, 8.000000000000000000 ) ) ;
#147 = PERSON ( 'UNSPECIFIED', 'UNSPECIFIED', 'UNSPECIFIED', ('UNSPECIFIED'), ('UNSPECIFIED'), ('UNSPECIFIED') ) ;
#148 = ORIENTED_EDGE ( 'NONE', *, *, #158, .T. ) ;
#149 = AXIS2_PLACEMENT_3D ( 'NONE', #93, #130, #178 ) ;
#150 = DATE_AND_TIME ( #65, #112 ) ;
#151 = PERSON_AND_ORGANIZATION_ROLE ( 'classification_officer' ) ;
#152 = CLOSED_SHELL ( 'NONE', ( #64, #99, #202 ) ) ;
#153 = CARTESIAN_POINT ( 'NONE',  ( 1.117274028429802674E-13, 5.249159239316466732E-33, 32.00000000000000000 ) ) ;
#154 = SECURITY_CLASSIFICATION ( '', '', #110 ) ;
#155 = ORIENTED_EDGE ( 'NONE', *, *, #158, .F. ) ;
#156 = ADVANCED_BREP_SHAPE_REPRESENTATION ( '701', ( #103, #36, #53 ), #199 ) ;
#157 = PERSON_AND_ORGANIZATION ( #147, #127 ) ;
#158 = EDGE_CURVE ( 'NONE', #176, #176, #106, .T. ) ;
#159 =( NAMED_UNIT ( * ) SI_UNIT ( $, .STERADIAN. ) SOLID_ANGLE_UNIT ( ) );
#160 = DIRECTION ( 'NONE',  ( 3.491481338843133355E-15, -1.224646799147353207E-16, 1.000000000000000000 ) ) ;
#161 = DIRECTION ( 'NONE',  ( -3.491481338843133355E-15, 1.224646799147353207E-16, -1.000000000000000000 ) ) ;
#162 = ADVANCED_FACE ( 'NONE', ( #8 ), #132, .F. ) ;
#163 = CALENDAR_DATE ( 2021, 12, 11 ) ;
#164 = EDGE_LOOP ( 'NONE', ( #18 ) ) ;
#165 = APPLICATION_PROTOCOL_DEFINITION ( 'international standard', 'config_control_design', 1994, #61 ) ;
#166 = PERSON_AND_ORGANIZATION ( #147, #127 ) ;
#167 = AXIS2_PLACEMENT_3D ( 'NONE', #109, #119, #21 ) ;
#168 = APPROVAL_DATE_TIME ( #30, #125 ) ;
#169 = CALENDAR_DATE ( 2021, 12, 11 ) ;
#170 = PERSON_AND_ORGANIZATION ( #147, #127 ) ;
#171 = CC_DESIGN_DATE_AND_TIME_ASSIGNMENT ( #150, #185, ( #154 ) ) ;
#172 = CIRCLE ( 'NONE', #31, 1.000000000000001332 ) ;
#173 = UNCERTAINTY_MEASURE_WITH_UNIT (LENGTH_MEASURE( 1.000000000000000082E-05 ), #105, 'distance_accuracy_value', 'NONE');
#174 = CC_DESIGN_SECURITY_CLASSIFICATION ( #154, ( #19 ) ) ;
#175 = PRODUCT ( '701', '701', '', ( #139 ) ) ;
#176 = VERTEX_POINT ( 'NONE', #181 ) ;
#177 = LOCAL_TIME ( 11, 8, 58.00000000000000000, #34 ) ;
#178 = DIRECTION ( 'NONE',  ( 4.275831445896958607E-31, 1.000000000000000000, 1.224646799147353207E-16 ) ) ;
#179 = FACE_OUTER_BOUND ( 'NONE', #11, .T. ) ;
#180 = APPROVAL_DATE_TIME ( #92, #48 ) ;
#181 = CARTESIAN_POINT ( 'NONE',  ( 8.552847072295026068E-47, 1.000000000000000000, 0.0000000000000000000 ) ) ;
#182 = CIRCLE ( 'NONE', #97, 1.000000000000000000 ) ;
#183 = PERSON_AND_ORGANIZATION ( #147, #127 ) ;
#184 = CARTESIAN_POINT ( 'NONE',  ( 0.0000000000000000000, 0.0000000000000000000, 0.0000000000000000000 ) ) ;
#185 = DATE_TIME_ROLE ( 'classification_date' ) ;
#186 = PERSON_AND_ORGANIZATION ( #147, #127 ) ;
#187 = CALENDAR_DATE ( 2021, 12, 11 ) ;
#188 = AXIS2_PLACEMENT_3D ( 'NONE', #116, #160, #114 ) ;
#189 = PRODUCT_DEFINITION ( 'UNKNOWN', '', #19, #17 ) ;
#190 = AXIS2_PLACEMENT_3D ( 'NONE', #51, #56, #138 ) ;
#191 = EDGE_CURVE ( 'NONE', #37, #37, #182, .T. ) ;
#192 = EDGE_LOOP ( 'NONE', ( #107 ) ) ;
#193 = CARTESIAN_POINT ( 'NONE',  ( 0.0000000000000000000, 0.0000000000000000000, 0.0000000000000000000 ) ) ;
#194 = CC_DESIGN_APPROVAL ( #12, ( #19 ) ) ;
#195 =( NAMED_UNIT ( * ) PLANE_ANGLE_UNIT ( ) SI_UNIT ( $, .RADIAN. ) );
#196 = CC_DESIGN_PERSON_AND_ORGANIZATION_ASSIGNMENT ( #186, #151, ( #154 ) ) ;
#197 = VERTEX_POINT ( 'NONE', #38 ) ;
#198 = APPLICATION_CONTEXT ( 'configuration controlled 3d designs of mechanical parts and assemblies' ) ;
#199 =( GEOMETRIC_REPRESENTATION_CONTEXT ( 3 ) GLOBAL_UNCERTAINTY_ASSIGNED_CONTEXT ( ( #173 ) ) GLOBAL_UNIT_ASSIGNED_CONTEXT ( ( #105, #195, #159 ) ) REPRESENTATION_CONTEXT ( 'NONE', 'WORKASPACE' ) );
#200 = APPROVAL_ROLE ( '' ) ;
#201 = FACE_OUTER_BOUND ( 'NONE', #192, .T. ) ;
#202 = ADVANCED_FACE ( 'NONE', ( #70 ), #143, .T. ) ;
#203 = COORDINATED_UNIVERSAL_TIME_OFFSET ( 1, 0, .AHEAD. ) ;
ENDSEC;
END-ISO-10303-21;
