ISO-10303-21;
HEADER;
FILE_DESCRIPTION (( 'STEP AP203' ),
    '1' );
FILE_NAME ('699.step',
    '2021-11-09T08:31:36',
    ( '' ),
    ( '' ),
    'SwSTEP 2.0',
    'SolidWorks 2019',
    '' );
FILE_SCHEMA (( 'CONFIG_CONTROL_DESIGN' ));
ENDSEC;

DATA;
#1 = DIRECTION ( 'NONE',  ( 0.0000000000000000000, 1.000000000000000000, 0.0000000000000000000 ) ) ;
#2 = FACE_OUTER_BOUND ( 'NONE', #147, .T. ) ;
#3 = APPLICATION_CONTEXT ( 'configuration controlled 3d designs of mechanical parts and assemblies' ) ;
#4 = APPROVAL_PERSON_ORGANIZATION ( #135, #38, #126 ) ;
#5 = PLANE ( 'NONE',  #66 ) ;
#6 = PERSON_AND_ORGANIZATION_ROLE ( 'classification_officer' ) ;
#7 =( LENGTH_UNIT ( ) NAMED_UNIT ( * ) SI_UNIT ( .MILLI., .METRE. ) );
#8 = EDGE_CURVE ( 'NONE', #95, #95, #100, .T. ) ;
#9 = CALENDAR_DATE ( 2021, 9, 11 ) ;
#10 = AXIS2_PLACEMENT_3D ( 'NONE', #62, #190, #172 ) ;
#11 = COORDINATED_UNIVERSAL_TIME_OFFSET ( 1, 0, .AHEAD. ) ;
#12 = DIRECTION ( 'NONE',  ( -3.491481338843133355E-15, 1.224646799147353207E-16, -1.000000000000000000 ) ) ;
#13 = PRODUCT_DEFINITION ( 'UNKNOWN', '', #124, #61 ) ;
#14 = APPLICATION_CONTEXT ( 'configuration controlled 3d designs of mechanical parts and assemblies' ) ;
#15 = DIRECTION ( 'NONE',  ( -3.491481338843133355E-15, 1.224646799147353207E-16, -1.000000000000000000 ) ) ;
#16 = UNCERTAINTY_MEASURE_WITH_UNIT (LENGTH_MEASURE( 1.000000000000000082E-05 ), #7, 'distance_accuracy_value', 'NONE');
#17 = CARTESIAN_POINT ( 'NONE',  ( 0.0000000000000000000, 0.0000000000000000000, 0.0000000000000000000 ) ) ;
#18 = CONICAL_SURFACE ( 'NONE', #119, 4.500000000000000888, 0.7853981633974344012 ) ;
#19 = CARTESIAN_POINT ( 'NONE',  ( 0.0000000000000000000, 0.0000000000000000000, 0.0000000000000000000 ) ) ;
#20 = FACE_OUTER_BOUND ( 'NONE', #26, .T. ) ;
#21 = FACE_OUTER_BOUND ( 'NONE', #178, .T. ) ;
#22 = CARTESIAN_POINT ( 'NONE',  ( 2.513866563967056016E-13, 4.499999999999992006, 72.00000000000000000 ) ) ;
#23 = APPROVAL_STATUS ( 'not_yet_approved' ) ;
#24 = PERSON_AND_ORGANIZATION_ROLE ( 'design_owner' ) ;
#25 = EDGE_CURVE ( 'NONE', #173, #173, #198, .T. ) ;
#26 = EDGE_LOOP ( 'NONE', ( #107 ) ) ;
#27 = ORIENTED_EDGE ( 'NONE', *, *, #176, .T. ) ;
#28 = AXIS2_PLACEMENT_3D ( 'NONE', #133, #150, #64 ) ;
#29 = CALENDAR_DATE ( 2021, 9, 11 ) ;
#30 = PERSON_AND_ORGANIZATION_ROLE ( 'design_supplier' ) ;
#31 = ORIENTED_EDGE ( 'NONE', *, *, #25, .F. ) ;
#32 = AXIS2_PLACEMENT_3D ( 'NONE', #33, #12, #73 ) ;
#33 = CARTESIAN_POINT ( 'NONE',  ( 2.513866563967056016E-13, -8.817456953860941711E-15, 72.00000000000000000 ) ) ;
#34 = LOCAL_TIME ( 9, 31, 36.00000000000000000, #11 ) ;
#35 = DIRECTION ( 'NONE',  ( -3.491481338843133355E-15, 1.224646799147353207E-16, -1.000000000000000000 ) ) ;
#36 = VERTEX_POINT ( 'NONE', #151 ) ;
#37 = DIRECTION ( 'NONE',  ( 3.491481338843133355E-15, -1.224646799147353207E-16, 1.000000000000000000 ) ) ;
#38 = APPROVAL ( #68, 'UNSPECIFIED' ) ;
#39 = DIRECTION ( 'NONE',  ( 3.491481338843133355E-15, -1.224646799147353207E-16, 1.000000000000000000 ) ) ;
#40 = DIRECTION ( 'NONE',  ( -3.491481338843133355E-15, 1.224646799147353207E-16, -1.000000000000000000 ) ) ;
#41 = CALENDAR_DATE ( 2021, 9, 11 ) ;
#42 = EDGE_LOOP ( 'NONE', ( #181 ) ) ;
#43 = APPROVAL_PERSON_ORGANIZATION ( #164, #104, #144 ) ;
#44 = CALENDAR_DATE ( 2021, 9, 11 ) ;
#45 = ADVANCED_BREP_SHAPE_REPRESENTATION ( '699', ( #53, #128, #75 ), #192 ) ;
#46 = CARTESIAN_POINT ( 'NONE',  ( 7.681258945454893382E-14, -2.694222958124176809E-15, 22.00000000000000000 ) ) ;
#47 = FACE_OUTER_BOUND ( 'NONE', #42, .T. ) ;
#48 = DIRECTION ( 'NONE',  ( -4.275831445896958607E-31, -1.000000000000000000, -1.224646799147353207E-16 ) ) ;
#49 = FACE_BOUND ( 'NONE', #59, .T. ) ;
#50 = PLANE ( 'NONE',  #108 ) ;
#51 = EDGE_CURVE ( 'NONE', #36, #36, #82, .T. ) ;
#52 = PERSON_AND_ORGANIZATION ( #78, #72 ) ;
#53 = MANIFOLD_SOLID_BREP ( 'Corps-Déplacer/Copier1[1]', #118 ) ;
#54 = APPROVAL_PERSON_ORGANIZATION ( #52, #60, #85 ) ;
#55 = DATE_AND_TIME ( #9, #34 ) ;
#56 = ORIENTED_EDGE ( 'NONE', *, *, #51, .T. ) ;
#57 = AXIS2_PLACEMENT_3D ( 'NONE', #97, #113, #1 ) ;
#58 = ADVANCED_FACE ( 'NONE', ( #47 ), #50, .F. ) ;
#59 = EDGE_LOOP ( 'NONE', ( #88 ) ) ;
#60 = APPROVAL ( #23, 'UNSPECIFIED' ) ;
#61 = DESIGN_CONTEXT ( 'detailed design', #14, 'design' ) ;
#62 = CARTESIAN_POINT ( 'NONE',  ( -8.551702076470480934E-31, 2.999533309458101739E-32, -2.449304821232125005E-16 ) ) ;
#63 = PERSON_AND_ORGANIZATION ( #78, #72 ) ;
#64 = DIRECTION ( 'NONE',  ( 4.275831445896958607E-31, 1.000000000000000000, 1.224646799147353207E-16 ) ) ;
#65 = DIRECTION ( 'NONE',  ( 0.0000000000000000000, 1.000000000000000000, 0.0000000000000000000 ) ) ;
#66 = AXIS2_PLACEMENT_3D ( 'NONE', #122, #39, #96 ) ;
#67 = CC_DESIGN_APPROVAL ( #38, ( #127 ) ) ;
#68 = APPROVAL_STATUS ( 'not_yet_approved' ) ;
#69 = COORDINATED_UNIVERSAL_TIME_OFFSET ( 1, 0, .AHEAD. ) ;
#70 =( NAMED_UNIT ( * ) PLANE_ANGLE_UNIT ( ) SI_UNIT ( $, .RADIAN. ) );
#71 = CC_DESIGN_DATE_AND_TIME_ASSIGNMENT ( #142, #103, ( #13 ) ) ;
#72 = ORGANIZATION ( 'UNSPECIFIED', 'UNSPECIFIED', '' ) ;
#73 = DIRECTION ( 'NONE',  ( 0.0000000000000000000, 1.000000000000000000, 0.0000000000000000000 ) ) ;
#74 = CC_DESIGN_PERSON_AND_ORGANIZATION_ASSIGNMENT ( #90, #177, ( #13 ) ) ;
#75 = AXIS2_PLACEMENT_3D ( 'NONE', #160, #136, #115 ) ;
#76 = CLOSED_SHELL ( 'NONE', ( #146, #189, #129 ) ) ;
#77 = PLANE ( 'NONE',  #28 ) ;
#78 = PERSON ( 'UNSPECIFIED', 'UNSPECIFIED', 'UNSPECIFIED', ('UNSPECIFIED'), ('UNSPECIFIED'), ('UNSPECIFIED') ) ;
#79 = DIRECTION ( 'NONE',  ( 0.0000000000000000000, 1.000000000000000000, 0.0000000000000000000 ) ) ;
#80 = PLANE ( 'NONE',  #10 ) ;
#81 = CARTESIAN_POINT ( 'NONE',  ( 7.681258945454893382E-14, 4.999999999999992006, 22.00000000000000000 ) ) ;
#82 = CIRCLE ( 'NONE', #201, 4.999999999999992006 ) ;
#83 = LOCAL_TIME ( 9, 31, 36.00000000000000000, #157 ) ;
#84 = MECHANICAL_CONTEXT ( 'NONE', #3, 'mechanical' ) ;
#85 = APPROVAL_ROLE ( '' ) ;
#86 = CC_DESIGN_PERSON_AND_ORGANIZATION_ASSIGNMENT ( #203, #30, ( #124 ) ) ;
#87 = EDGE_LOOP ( 'NONE', ( #196 ) ) ;
#88 = ORIENTED_EDGE ( 'NONE', *, *, #8, .T. ) ;
#89 = CC_DESIGN_PERSON_AND_ORGANIZATION_ASSIGNMENT ( #148, #6, ( #127 ) ) ;
#90 = PERSON_AND_ORGANIZATION ( #78, #72 ) ;
#91 = SECURITY_CLASSIFICATION_LEVEL ( 'unclassified' ) ;
#92 = CC_DESIGN_PERSON_AND_ORGANIZATION_ASSIGNMENT ( #98, #24, ( #132 ) ) ;
#93 = CIRCLE ( 'NONE', #184, 4.999999999999994671 ) ;
#94 = VERTEX_POINT ( 'NONE', #101 ) ;
#95 = VERTEX_POINT ( 'NONE', #22 ) ;
#96 = DIRECTION ( 'NONE',  ( -4.275831445896958607E-31, -1.000000000000000000, -1.224646799147353207E-16 ) ) ;
#97 = CARTESIAN_POINT ( 'NONE',  ( 2.496409157272839907E-13, -8.756224613903572559E-15, 71.49999999999998579 ) ) ;
#98 = PERSON_AND_ORGANIZATION ( #78, #72 ) ;
#99 = DATE_TIME_ROLE ( 'classification_date' ) ;
#100 = CIRCLE ( 'NONE', #32, 4.500000000000000888 ) ;
#101 = CARTESIAN_POINT ( 'NONE',  ( 7.681258945454893382E-14, 4.999999999999992006, 22.00000000000000000 ) ) ;
#102 = LOCAL_TIME ( 9, 31, 36.00000000000000000, #162 ) ;
#103 = DATE_TIME_ROLE ( 'creation_date' ) ;
#104 = APPROVAL ( #185, 'UNSPECIFIED' ) ;
#105 = AXIS2_PLACEMENT_3D ( 'NONE', #46, #15, #79 ) ;
#106 = AXIS2_PLACEMENT_3D ( 'NONE', #17, #111, #191 ) ;
#107 = ORIENTED_EDGE ( 'NONE', *, *, #8, .F. ) ;
#108 = AXIS2_PLACEMENT_3D ( 'NONE', #152, #37, #48 ) ;
#109 = CC_DESIGN_APPROVAL ( #60, ( #13 ) ) ;
#110 = FACE_OUTER_BOUND ( 'NONE', #145, .T. ) ;
#111 = DIRECTION ( 'NONE',  ( -3.491481338843133355E-15, 1.224646799147353207E-16, -1.000000000000000000 ) ) ;
#112 = DIRECTION ( 'NONE',  ( 4.275831445896958607E-31, 1.000000000000000000, 1.224646799147353207E-16 ) ) ;
#113 = DIRECTION ( 'NONE',  ( -3.491481338843133355E-15, 1.224646799147353207E-16, -1.000000000000000000 ) ) ;
#114 = DIRECTION ( 'NONE',  ( -3.491481338843133355E-15, 1.224646799147353207E-16, -1.000000000000000000 ) ) ;
#115 = DIRECTION ( 'NONE',  ( 1.000000000000000000, 0.0000000000000000000, 0.0000000000000000000 ) ) ;
#116 = DATE_AND_TIME ( #194, #149 ) ;
#117 = EDGE_LOOP ( 'NONE', ( #27 ) ) ;
#118 = CLOSED_SHELL ( 'NONE', ( #58, #155, #137, #170 ) ) ;
#119 = AXIS2_PLACEMENT_3D ( 'NONE', #125, #35, #65 ) ;
#120 = PERSON_AND_ORGANIZATION_ROLE ( 'creator' ) ;
#121 = CARTESIAN_POINT ( 'NONE',  ( 7.681258945454893382E-14, -2.694222958124176809E-15, 22.00000000000000000 ) ) ;
#122 = CARTESIAN_POINT ( 'NONE',  ( 7.681258945454893382E-14, 3.749399456654636904E-32, 22.00000000000000000 ) ) ;
#123 = DIRECTION ( 'NONE',  ( 0.0000000000000000000, 1.000000000000000000, 0.0000000000000000000 ) ) ;
#124 = PRODUCT_DEFINITION_FORMATION_WITH_SPECIFIED_SOURCE ( 'ANY', '', #132, .NOT_KNOWN. ) ;
#125 = CARTESIAN_POINT ( 'NONE',  ( 2.513866563967056016E-13, -8.817456953860941711E-15, 72.00000000000000000 ) ) ;
#126 = APPROVAL_ROLE ( '' ) ;
#127 = SECURITY_CLASSIFICATION ( '', '', #91 ) ;
#128 = MANIFOLD_SOLID_BREP ( 'Corps-Déplacer/Copier1[2]', #76 ) ;
#129 = ADVANCED_FACE ( 'NONE', ( #110 ), #5, .T. ) ;
#130 = AXIS2_PLACEMENT_3D ( 'NONE', #19, #114, #171 ) ;
#131 = CC_DESIGN_PERSON_AND_ORGANIZATION_ASSIGNMENT ( #63, #120, ( #124 ) ) ;
#132 = PRODUCT ( '699', '699', '', ( #84 ) ) ;
#133 = CARTESIAN_POINT ( 'NONE',  ( 2.513866563967056016E-13, 3.374459510989167028E-32, 72.00000000000000000 ) ) ;
#134 = CYLINDRICAL_SURFACE ( 'NONE', #130, 4.999999999999997335 ) ;
#135 = PERSON_AND_ORGANIZATION ( #78, #72 ) ;
#136 = DIRECTION ( 'NONE',  ( 0.0000000000000000000, 0.0000000000000000000, 1.000000000000000000 ) ) ;
#137 = ADVANCED_FACE ( 'NONE', ( #174, #49 ), #18, .T. ) ;
#138 = COORDINATED_UNIVERSAL_TIME_OFFSET ( 1, 0, .AHEAD. ) ;
#139 = ORIENTED_EDGE ( 'NONE', *, *, #176, .F. ) ;
#140 = CIRCLE ( 'NONE', #57, 5.000000000000000888 ) ;
#141 = VERTEX_POINT ( 'NONE', #199 ) ;
#142 = DATE_AND_TIME ( #44, #102 ) ;
#143 = APPROVAL_DATE_TIME ( #159, #38 ) ;
#144 = APPROVAL_ROLE ( '' ) ;
#145 = EDGE_LOOP ( 'NONE', ( #139 ) ) ;
#146 = ADVANCED_FACE ( 'NONE', ( #21 ), #80, .F. ) ;
#147 = EDGE_LOOP ( 'NONE', ( #31 ) ) ;
#148 = PERSON_AND_ORGANIZATION ( #78, #72 ) ;
#149 = LOCAL_TIME ( 9, 31, 36.00000000000000000, #138 ) ;
#150 = DIRECTION ( 'NONE',  ( -3.491481338843133355E-15, 1.224646799147353207E-16, -1.000000000000000000 ) ) ;
#151 = CARTESIAN_POINT ( 'NONE',  ( 4.275753076543797008E-31, 4.999999999999992006, 1.224624353272506412E-16 ) ) ;
#152 = CARTESIAN_POINT ( 'NONE',  ( 7.681258945454893382E-14, 3.749399456654636904E-32, 22.00000000000000000 ) ) ;
#153 = DIRECTION ( 'NONE',  ( -3.491481338843133355E-15, 1.224646799147353207E-16, -1.000000000000000000 ) ) ;
#154 = FACE_OUTER_BOUND ( 'NONE', #158, .T. ) ;
#155 = ADVANCED_FACE ( 'NONE', ( #2, #169 ), #134, .T. ) ;
#156 = APPLICATION_PROTOCOL_DEFINITION ( 'international standard', 'config_control_design', 1994, #14 ) ;
#157 = COORDINATED_UNIVERSAL_TIME_OFFSET ( 1, 0, .AHEAD. ) ;
#158 = EDGE_LOOP ( 'NONE', ( #200 ) ) ;
#159 = DATE_AND_TIME ( #41, #83 ) ;
#160 = CARTESIAN_POINT ( 'NONE',  ( 0.0000000000000000000, 0.0000000000000000000, 0.0000000000000000000 ) ) ;
#161 = LOCAL_TIME ( 9, 31, 36.00000000000000000, #69 ) ;
#162 = COORDINATED_UNIVERSAL_TIME_OFFSET ( 1, 0, .AHEAD. ) ;
#163 = EDGE_LOOP ( 'NONE', ( #166 ) ) ;
#164 = PERSON_AND_ORGANIZATION ( #78, #72 ) ;
#165 = APPROVAL_DATE_TIME ( #55, #104 ) ;
#166 = ORIENTED_EDGE ( 'NONE', *, *, #183, .T. ) ;
#167 = SHAPE_DEFINITION_REPRESENTATION ( #186, #45 ) ;
#168 = CC_DESIGN_APPROVAL ( #104, ( #124 ) ) ;
#169 = FACE_OUTER_BOUND ( 'NONE', #163, .T. ) ;
#170 = ADVANCED_FACE ( 'NONE', ( #20 ), #77, .F. ) ;
#171 = DIRECTION ( 'NONE',  ( 4.275831445896959482E-31, 1.000000000000000000, 1.224646799147353207E-16 ) ) ;
#172 = DIRECTION ( 'NONE',  ( -4.275831445896958607E-31, -1.000000000000000000, -1.224646799147353207E-16 ) ) ;
#173 = VERTEX_POINT ( 'NONE', #81 ) ;
#174 = FACE_OUTER_BOUND ( 'NONE', #87, .T. ) ;
#175 =( NAMED_UNIT ( * ) SI_UNIT ( $, .STERADIAN. ) SOLID_ANGLE_UNIT ( ) );
#176 = EDGE_CURVE ( 'NONE', #94, #94, #93, .T. ) ;
#177 = PERSON_AND_ORGANIZATION_ROLE ( 'creator' ) ;
#178 = EDGE_LOOP ( 'NONE', ( #56 ) ) ;
#179 = CC_DESIGN_SECURITY_CLASSIFICATION ( #127, ( #124 ) ) ;
#180 = APPROVAL_DATE_TIME ( #202, #60 ) ;
#181 = ORIENTED_EDGE ( 'NONE', *, *, #25, .T. ) ;
#182 = CC_DESIGN_DATE_AND_TIME_ASSIGNMENT ( #116, #99, ( #127 ) ) ;
#183 = EDGE_CURVE ( 'NONE', #141, #141, #140, .T. ) ;
#184 = AXIS2_PLACEMENT_3D ( 'NONE', #121, #40, #123 ) ;
#185 = APPROVAL_STATUS ( 'not_yet_approved' ) ;
#186 = PRODUCT_DEFINITION_SHAPE ( 'NONE', 'NONE',  #13 ) ;
#187 = CARTESIAN_POINT ( 'NONE',  ( -1.710340415294096187E-30, 5.999066618916203478E-32, -4.898609642464250010E-16 ) ) ;
#188 = CYLINDRICAL_SURFACE ( 'NONE', #106, 4.999999999999993783 ) ;
#189 = ADVANCED_FACE ( 'NONE', ( #154, #193 ), #188, .T. ) ;
#190 = DIRECTION ( 'NONE',  ( 3.491481338843133355E-15, -1.224646799147353207E-16, 1.000000000000000000 ) ) ;
#191 = DIRECTION ( 'NONE',  ( 4.275831445896959482E-31, 1.000000000000000000, 1.224646799147353207E-16 ) ) ;
#192 =( GEOMETRIC_REPRESENTATION_CONTEXT ( 3 ) GLOBAL_UNCERTAINTY_ASSIGNED_CONTEXT ( ( #16 ) ) GLOBAL_UNIT_ASSIGNED_CONTEXT ( ( #7, #70, #175 ) ) REPRESENTATION_CONTEXT ( 'NONE', 'WORKASPACE' ) );
#193 = FACE_OUTER_BOUND ( 'NONE', #117, .T. ) ;
#194 = CALENDAR_DATE ( 2021, 9, 11 ) ;
#195 = APPLICATION_PROTOCOL_DEFINITION ( 'international standard', 'config_control_design', 1994, #3 ) ;
#196 = ORIENTED_EDGE ( 'NONE', *, *, #183, .F. ) ;
#197 = PRODUCT_RELATED_PRODUCT_CATEGORY ( 'detail', '', ( #132 ) ) ;
#198 = CIRCLE ( 'NONE', #105, 4.999999999999994671 ) ;
#199 = CARTESIAN_POINT ( 'NONE',  ( 2.496409157272839907E-13, 4.999999999999992006, 71.49999999999998579 ) ) ;
#200 = ORIENTED_EDGE ( 'NONE', *, *, #51, .F. ) ;
#201 = AXIS2_PLACEMENT_3D ( 'NONE', #187, #153, #112 ) ;
#202 = DATE_AND_TIME ( #29, #161 ) ;
#203 = PERSON_AND_ORGANIZATION ( #78, #72 ) ;
ENDSEC;
END-ISO-10303-21;
