ISO-10303-21;
HEADER;
FILE_DESCRIPTION (( 'STEP AP203' ),
    '1' );
FILE_NAME ('698.step',
    '2021-11-09T08:31:36',
    ( '' ),
    ( '' ),
    'SwSTEP 2.0',
    'SolidWorks 2019',
    '' );
FILE_SCHEMA (( 'CONFIG_CONTROL_DESIGN' ));
ENDSEC;

DATA;
#1 = ORIENTED_EDGE ( 'NONE', *, *, #124, .T. ) ;
#2 = AXIS2_PLACEMENT_3D ( 'NONE', #164, #4, #148 ) ;
#3 = EDGE_LOOP ( 'NONE', ( #1 ) ) ;
#4 = DIRECTION ( 'NONE',  ( -3.491481338843133355E-15, 1.224646799147353207E-16, -1.000000000000000000 ) ) ;
#5 = CARTESIAN_POINT ( 'NONE',  ( -8.551588583646409246E-31, 2.999493501534118670E-32, -2.449272315595388860E-16 ) ) ;
#6 = CARTESIAN_POINT ( 'NONE',  ( 0.0000000000000000000, 0.0000000000000000000, 0.0000000000000000000 ) ) ;
#7 = DIRECTION ( 'NONE',  ( -3.491481338843133355E-15, 1.224646799147353207E-16, -1.000000000000000000 ) ) ;
#8 = FACE_OUTER_BOUND ( 'NONE', #87, .T. ) ;
#9 = PRODUCT_DEFINITION_SHAPE ( 'NONE', 'NONE',  #151 ) ;
#10 = DIRECTION ( 'NONE',  ( 4.275831445896958607E-31, 1.000000000000000000, 1.224646799147353207E-16 ) ) ;
#11 = EDGE_CURVE ( 'NONE', #170, #170, #154, .T. ) ;
#12 = CYLINDRICAL_SURFACE ( 'NONE', #75, 3.999999999999999112 ) ;
#13 = CC_DESIGN_PERSON_AND_ORGANIZATION_ASSIGNMENT ( #123, #16, ( #22 ) ) ;
#14 = CLOSED_SHELL ( 'NONE', ( #73, #44, #118 ) ) ;
#15 = MANIFOLD_SOLID_BREP ( 'Corps-Déplacer/Copier1[2]', #14 ) ;
#16 = PERSON_AND_ORGANIZATION_ROLE ( 'design_owner' ) ;
#17 = CC_DESIGN_PERSON_AND_ORGANIZATION_ASSIGNMENT ( #143, #70, ( #20 ) ) ;
#18 = PERSON_AND_ORGANIZATION_ROLE ( 'design_supplier' ) ;
#19 = CARTESIAN_POINT ( 'NONE',  ( 2.182175836776958284E-13, -7.654042494670957804E-15, 62.50000000000000000 ) ) ;
#20 = PRODUCT_DEFINITION_FORMATION_WITH_SPECIFIED_SOURCE ( 'ANY', '', #22, .NOT_KNOWN. ) ;
#21 = DIRECTION ( 'NONE',  ( 0.0000000000000000000, 1.000000000000000000, 0.0000000000000000000 ) ) ;
#22 = PRODUCT ( '698', '698', '', ( #171 ) ) ;
#23 = ORIENTED_EDGE ( 'NONE', *, *, #81, .T. ) ;
#24 = ADVANCED_BREP_SHAPE_REPRESENTATION ( '698', ( #147, #15, #55 ), #127 ) ;
#25 = ADVANCED_FACE ( 'NONE', ( #92 ), #105, .F. ) ;
#26 = PERSON_AND_ORGANIZATION ( #74, #188 ) ;
#27 = CALENDAR_DATE ( 2021, 9, 11 ) ;
#28 = EDGE_LOOP ( 'NONE', ( #144 ) ) ;
#29 = APPROVAL_DATE_TIME ( #176, #163 ) ;
#30 = ORIENTED_EDGE ( 'NONE', *, *, #54, .F. ) ;
#31 = DIRECTION ( 'NONE',  ( -4.275831445896958607E-31, -1.000000000000000000, -1.224646799147353207E-16 ) ) ;
#32 = APPROVAL_PERSON_ORGANIZATION ( #99, #42, #46 ) ;
#33 = CLOSED_SHELL ( 'NONE', ( #25, #153, #61, #83 ) ) ;
#34 = CONICAL_SURFACE ( 'NONE', #38, 3.500000000000001332, 0.7853981633974482790 ) ;
#35 = APPROVAL_PERSON_ORGANIZATION ( #56, #163, #68 ) ;
#36 = FACE_OUTER_BOUND ( 'NONE', #192, .T. ) ;
#37 = VERTEX_POINT ( 'NONE', #185 ) ;
#38 = AXIS2_PLACEMENT_3D ( 'NONE', #53, #179, #102 ) ;
#39 =( NAMED_UNIT ( * ) SI_UNIT ( $, .STERADIAN. ) SOLID_ANGLE_UNIT ( ) );
#40 = APPLICATION_CONTEXT ( 'configuration controlled 3d designs of mechanical parts and assemblies' ) ;
#41 = APPLICATION_PROTOCOL_DEFINITION ( 'international standard', 'config_control_design', 1994, #120 ) ;
#42 = APPROVAL ( #187, 'UNSPECIFIED' ) ;
#43 = AXIS2_PLACEMENT_3D ( 'NONE', #93, #96, #156 ) ;
#44 = ADVANCED_FACE ( 'NONE', ( #8, #104 ), #149, .T. ) ;
#45 = COORDINATED_UNIVERSAL_TIME_OFFSET ( 1, 0, .AHEAD. ) ;
#46 = APPROVAL_ROLE ( '' ) ;
#47 = CC_DESIGN_APPROVAL ( #163, ( #151 ) ) ;
#48 = CALENDAR_DATE ( 2021, 9, 11 ) ;
#49 = DIRECTION ( 'NONE',  ( 3.491481338843133355E-15, -1.224646799147353207E-16, 1.000000000000000000 ) ) ;
#50 = CC_DESIGN_DATE_AND_TIME_ASSIGNMENT ( #190, #126, ( #151 ) ) ;
#51 = CC_DESIGN_APPROVAL ( #57, ( #175 ) ) ;
#52 = DESIGN_CONTEXT ( 'detailed design', #40, 'design' ) ;
#53 = CARTESIAN_POINT ( 'NONE',  ( 2.199633243471174140E-13, -7.715274834628325378E-15, 63.00000000000000000 ) ) ;
#54 = EDGE_CURVE ( 'NONE', #107, #107, #109, .T. ) ;
#55 = AXIS2_PLACEMENT_3D ( 'NONE', #200, #60, #97 ) ;
#56 = PERSON_AND_ORGANIZATION ( #74, #188 ) ;
#57 = APPROVAL ( #141, 'UNSPECIFIED' ) ;
#58 = CARTESIAN_POINT ( 'NONE',  ( 8.551737199941398906E-31, 3.999999999999994227, 2.449314880994017066E-16 ) ) ;
#59 =( NAMED_UNIT ( * ) PLANE_ANGLE_UNIT ( ) SI_UNIT ( $, .RADIAN. ) );
#60 = DIRECTION ( 'NONE',  ( 0.0000000000000000000, 0.0000000000000000000, 1.000000000000000000 ) ) ;
#61 = ADVANCED_FACE ( 'NONE', ( #77, #195 ), #34, .T. ) ;
#62 = FACE_OUTER_BOUND ( 'NONE', #203, .T. ) ;
#63 = APPROVAL_DATE_TIME ( #100, #42 ) ;
#64 = CALENDAR_DATE ( 2021, 9, 11 ) ;
#65 = AXIS2_PLACEMENT_3D ( 'NONE', #19, #91, #194 ) ;
#66 = CC_DESIGN_DATE_AND_TIME_ASSIGNMENT ( #85, #67, ( #175 ) ) ;
#67 = DATE_TIME_ROLE ( 'classification_date' ) ;
#68 = APPROVAL_ROLE ( '' ) ;
#69 = ORIENTED_EDGE ( 'NONE', *, *, #124, .F. ) ;
#70 = PERSON_AND_ORGANIZATION_ROLE ( 'creator' ) ;
#71 = EDGE_LOOP ( 'NONE', ( #23 ) ) ;
#72 = DIRECTION ( 'NONE',  ( 3.491481338843133355E-15, -1.224646799147353207E-16, 1.000000000000000000 ) ) ;
#73 = ADVANCED_FACE ( 'NONE', ( #36 ), #78, .F. ) ;
#74 = PERSON ( 'UNSPECIFIED', 'UNSPECIFIED', 'UNSPECIFIED', ('UNSPECIFIED'), ('UNSPECIFIED'), ('UNSPECIFIED') ) ;
#75 = AXIS2_PLACEMENT_3D ( 'NONE', #183, #138, #111 ) ;
#76 = DIRECTION ( 'NONE',  ( 4.275831445896959482E-31, 1.000000000000000000, 1.224646799147353454E-16 ) ) ;
#77 = FACE_OUTER_BOUND ( 'NONE', #159, .T. ) ;
#78 = PLANE ( 'NONE',  #178 ) ;
#79 = CARTESIAN_POINT ( 'NONE',  ( 6.982962677686266711E-14, -2.449293598294706513E-15, 20.00000000000000000 ) ) ;
#80 = CARTESIAN_POINT ( 'NONE',  ( 2.199633243471174140E-13, 2.624579619658240413E-32, 63.00000000000000000 ) ) ;
#81 = EDGE_CURVE ( 'NONE', #180, #180, #158, .T. ) ;
#82 = COORDINATED_UNIVERSAL_TIME_OFFSET ( 1, 0, .AHEAD. ) ;
#83 = ADVANCED_FACE ( 'NONE', ( #199 ), #125, .F. ) ;
#84 = COORDINATED_UNIVERSAL_TIME_OFFSET ( 1, 0, .AHEAD. ) ;
#85 = DATE_AND_TIME ( #48, #172 ) ;
#86 = PERSON_AND_ORGANIZATION ( #74, #188 ) ;
#87 = EDGE_LOOP ( 'NONE', ( #30 ) ) ;
#88 = COORDINATED_UNIVERSAL_TIME_OFFSET ( 1, 0, .AHEAD. ) ;
#89 = EDGE_LOOP ( 'NONE', ( #132 ) ) ;
#90 = LOCAL_TIME ( 9, 31, 35.00000000000000000, #88 ) ;
#91 = DIRECTION ( 'NONE',  ( -3.491481338843133355E-15, 1.224646799147353207E-16, -1.000000000000000000 ) ) ;
#92 = FACE_OUTER_BOUND ( 'NONE', #117, .T. ) ;
#93 = CARTESIAN_POINT ( 'NONE',  ( 6.982962677686266711E-14, 2.999519565323708647E-32, 20.00000000000000000 ) ) ;
#94 = CC_DESIGN_PERSON_AND_ORGANIZATION_ASSIGNMENT ( #145, #128, ( #151 ) ) ;
#95 = CARTESIAN_POINT ( 'NONE',  ( 2.182175836776958284E-13, 3.999999999999994227, 62.50000000000000000 ) ) ;
#96 = DIRECTION ( 'NONE',  ( 3.491481338843133355E-15, -1.224646799147353207E-16, 1.000000000000000000 ) ) ;
#97 = DIRECTION ( 'NONE',  ( 1.000000000000000000, 0.0000000000000000000, 0.0000000000000000000 ) ) ;
#98 = ORIENTED_EDGE ( 'NONE', *, *, #108, .T. ) ;
#99 = PERSON_AND_ORGANIZATION ( #74, #188 ) ;
#100 = DATE_AND_TIME ( #27, #155 ) ;
#101 = APPROVAL_STATUS ( 'not_yet_approved' ) ;
#102 = DIRECTION ( 'NONE',  ( 0.0000000000000000000, 1.000000000000000000, 0.0000000000000000000 ) ) ;
#103 = APPROVAL_PERSON_ORGANIZATION ( #26, #57, #202 ) ;
#104 = FACE_OUTER_BOUND ( 'NONE', #3, .T. ) ;
#105 = PLANE ( 'NONE',  #122 ) ;
#106 = CARTESIAN_POINT ( 'NONE',  ( 2.199633243471174140E-13, 3.499999999999993783, 63.00000000000000000 ) ) ;
#107 = VERTEX_POINT ( 'NONE', #58 ) ;
#108 = EDGE_CURVE ( 'NONE', #182, #182, #113, .T. ) ;
#109 = CIRCLE ( 'NONE', #174, 3.999999999999994227 ) ;
#110 = CC_DESIGN_APPROVAL ( #42, ( #20 ) ) ;
#111 = DIRECTION ( 'NONE',  ( 4.275831445896958607E-31, 1.000000000000000000, 1.224646799147353207E-16 ) ) ;
#112 =( LENGTH_UNIT ( ) NAMED_UNIT ( * ) SI_UNIT ( .MILLI., .METRE. ) );
#113 = CIRCLE ( 'NONE', #136, 3.999999999999996447 ) ;
#114 = DATE_AND_TIME ( #116, #184 ) ;
#115 = SECURITY_CLASSIFICATION_LEVEL ( 'unclassified' ) ;
#116 = CALENDAR_DATE ( 2021, 9, 11 ) ;
#117 = EDGE_LOOP ( 'NONE', ( #98 ) ) ;
#118 = ADVANCED_FACE ( 'NONE', ( #169 ), #166, .T. ) ;
#119 = LOCAL_TIME ( 9, 31, 35.00000000000000000, #82 ) ;
#120 = APPLICATION_CONTEXT ( 'configuration controlled 3d designs of mechanical parts and assemblies' ) ;
#121 = DIRECTION ( 'NONE',  ( -4.275831445896958607E-31, -1.000000000000000000, -1.224646799147353207E-16 ) ) ;
#122 = AXIS2_PLACEMENT_3D ( 'NONE', #152, #72, #121 ) ;
#123 = PERSON_AND_ORGANIZATION ( #74, #188 ) ;
#124 = EDGE_CURVE ( 'NONE', #37, #37, #162, .T. ) ;
#125 = PLANE ( 'NONE',  #196 ) ;
#126 = DATE_TIME_ROLE ( 'creation_date' ) ;
#127 =( GEOMETRIC_REPRESENTATION_CONTEXT ( 3 ) GLOBAL_UNCERTAINTY_ASSIGNED_CONTEXT ( ( #150 ) ) GLOBAL_UNIT_ASSIGNED_CONTEXT ( ( #112, #59, #39 ) ) REPRESENTATION_CONTEXT ( 'NONE', 'WORKASPACE' ) );
#128 = PERSON_AND_ORGANIZATION_ROLE ( 'creator' ) ;
#129 = ORIENTED_EDGE ( 'NONE', *, *, #54, .T. ) ;
#130 = PERSON_AND_ORGANIZATION ( #74, #188 ) ;
#131 = AXIS2_PLACEMENT_3D ( 'NONE', #6, #7, #76 ) ;
#132 = ORIENTED_EDGE ( 'NONE', *, *, #11, .F. ) ;
#133 = ORIENTED_EDGE ( 'NONE', *, *, #81, .F. ) ;
#134 = AXIS2_PLACEMENT_3D ( 'NONE', #167, #157, #186 ) ;
#135 = DIRECTION ( 'NONE',  ( -3.491481338843133355E-15, 1.224646799147353207E-16, -1.000000000000000000 ) ) ;
#136 = AXIS2_PLACEMENT_3D ( 'NONE', #79, #137, #21 ) ;
#137 = DIRECTION ( 'NONE',  ( -3.491481338843133355E-15, 1.224646799147353207E-16, -1.000000000000000000 ) ) ;
#138 = DIRECTION ( 'NONE',  ( -3.491481338843133355E-15, 1.224646799147353207E-16, -1.000000000000000000 ) ) ;
#139 = FACE_OUTER_BOUND ( 'NONE', #71, .T. ) ;
#140 = CALENDAR_DATE ( 2021, 9, 11 ) ;
#141 = APPROVAL_STATUS ( 'not_yet_approved' ) ;
#142 = EDGE_LOOP ( 'NONE', ( #69 ) ) ;
#143 = PERSON_AND_ORGANIZATION ( #74, #188 ) ;
#144 = ORIENTED_EDGE ( 'NONE', *, *, #11, .T. ) ;
#145 = PERSON_AND_ORGANIZATION ( #74, #188 ) ;
#146 = PRODUCT_RELATED_PRODUCT_CATEGORY ( 'detail', '', ( #22 ) ) ;
#147 = MANIFOLD_SOLID_BREP ( 'Corps-Déplacer/Copier1[1]', #33 ) ;
#148 = DIRECTION ( 'NONE',  ( 0.0000000000000000000, 1.000000000000000000, 0.0000000000000000000 ) ) ;
#149 = CYLINDRICAL_SURFACE ( 'NONE', #131, 3.999999999999994671 ) ;
#150 = UNCERTAINTY_MEASURE_WITH_UNIT (LENGTH_MEASURE( 1.000000000000000082E-05 ), #112, 'distance_accuracy_value', 'NONE');
#151 = PRODUCT_DEFINITION ( 'UNKNOWN', '', #20, #52 ) ;
#152 = CARTESIAN_POINT ( 'NONE',  ( 6.982962677686266711E-14, 2.999519565323708647E-32, 20.00000000000000000 ) ) ;
#153 = ADVANCED_FACE ( 'NONE', ( #62, #139 ), #12, .T. ) ;
#154 = CIRCLE ( 'NONE', #2, 3.500000000000001332 ) ;
#155 = LOCAL_TIME ( 9, 31, 35.00000000000000000, #189 ) ;
#156 = DIRECTION ( 'NONE',  ( -4.275831445896958607E-31, -1.000000000000000000, -1.224646799147353207E-16 ) ) ;
#157 = DIRECTION ( 'NONE',  ( -3.491481338843133355E-15, 1.224646799147353207E-16, -1.000000000000000000 ) ) ;
#158 = CIRCLE ( 'NONE', #65, 4.000000000000001776 ) ;
#159 = EDGE_LOOP ( 'NONE', ( #133 ) ) ;
#160 = CC_DESIGN_PERSON_AND_ORGANIZATION_ASSIGNMENT ( #130, #191, ( #175 ) ) ;
#161 = SHAPE_DEFINITION_REPRESENTATION ( #9, #24 ) ;
#162 = CIRCLE ( 'NONE', #134, 3.999999999999996447 ) ;
#163 = APPROVAL ( #101, 'UNSPECIFIED' ) ;
#164 = CARTESIAN_POINT ( 'NONE',  ( 2.199633243471174140E-13, -7.715274834628325378E-15, 63.00000000000000000 ) ) ;
#165 = DIRECTION ( 'NONE',  ( 4.275831445896958607E-31, 1.000000000000000000, 1.224646799147353207E-16 ) ) ;
#166 = PLANE ( 'NONE',  #43 ) ;
#167 = CARTESIAN_POINT ( 'NONE',  ( 6.982962677686266711E-14, -2.449293598294706513E-15, 20.00000000000000000 ) ) ;
#168 = CC_DESIGN_SECURITY_CLASSIFICATION ( #175, ( #20 ) ) ;
#169 = FACE_OUTER_BOUND ( 'NONE', #142, .T. ) ;
#170 = VERTEX_POINT ( 'NONE', #106 ) ;
#171 = MECHANICAL_CONTEXT ( 'NONE', #120, 'mechanical' ) ;
#172 = LOCAL_TIME ( 9, 31, 35.00000000000000000, #84 ) ;
#173 = ORIENTED_EDGE ( 'NONE', *, *, #108, .F. ) ;
#174 = AXIS2_PLACEMENT_3D ( 'NONE', #5, #135, #165 ) ;
#175 = SECURITY_CLASSIFICATION ( '', '', #115 ) ;
#176 = DATE_AND_TIME ( #140, #119 ) ;
#177 = APPROVAL_DATE_TIME ( #114, #57 ) ;
#178 = AXIS2_PLACEMENT_3D ( 'NONE', #193, #49, #31 ) ;
#179 = DIRECTION ( 'NONE',  ( -3.491481338843133355E-15, 1.224646799147353207E-16, -1.000000000000000000 ) ) ;
#180 = VERTEX_POINT ( 'NONE', #95 ) ;
#181 = CC_DESIGN_PERSON_AND_ORGANIZATION_ASSIGNMENT ( #86, #18, ( #20 ) ) ;
#182 = VERTEX_POINT ( 'NONE', #201 ) ;
#183 = CARTESIAN_POINT ( 'NONE',  ( 0.0000000000000000000, 0.0000000000000000000, 0.0000000000000000000 ) ) ;
#184 = LOCAL_TIME ( 9, 31, 35.00000000000000000, #45 ) ;
#185 = CARTESIAN_POINT ( 'NONE',  ( 6.982962677686266711E-14, 3.999999999999994227, 20.00000000000000000 ) ) ;
#186 = DIRECTION ( 'NONE',  ( 0.0000000000000000000, 1.000000000000000000, 0.0000000000000000000 ) ) ;
#187 = APPROVAL_STATUS ( 'not_yet_approved' ) ;
#188 = ORGANIZATION ( 'UNSPECIFIED', 'UNSPECIFIED', '' ) ;
#189 = COORDINATED_UNIVERSAL_TIME_OFFSET ( 1, 0, .AHEAD. ) ;
#190 = DATE_AND_TIME ( #64, #90 ) ;
#191 = PERSON_AND_ORGANIZATION_ROLE ( 'classification_officer' ) ;
#192 = EDGE_LOOP ( 'NONE', ( #129 ) ) ;
#193 = CARTESIAN_POINT ( 'NONE',  ( -4.275794291823204623E-31, 1.499746750767059335E-32, -1.224636157797694430E-16 ) ) ;
#194 = DIRECTION ( 'NONE',  ( 0.0000000000000000000, 1.000000000000000000, 0.0000000000000000000 ) ) ;
#195 = FACE_BOUND ( 'NONE', #28, .T. ) ;
#196 = AXIS2_PLACEMENT_3D ( 'NONE', #80, #198, #10 ) ;
#197 = APPLICATION_PROTOCOL_DEFINITION ( 'international standard', 'config_control_design', 1994, #40 ) ;
#198 = DIRECTION ( 'NONE',  ( -3.491481338843133355E-15, 1.224646799147353207E-16, -1.000000000000000000 ) ) ;
#199 = FACE_OUTER_BOUND ( 'NONE', #89, .T. ) ;
#200 = CARTESIAN_POINT ( 'NONE',  ( 0.0000000000000000000, 0.0000000000000000000, 0.0000000000000000000 ) ) ;
#201 = CARTESIAN_POINT ( 'NONE',  ( 6.982962677686266711E-14, 3.999999999999994227, 20.00000000000000000 ) ) ;
#202 = APPROVAL_ROLE ( '' ) ;
#203 = EDGE_LOOP ( 'NONE', ( #173 ) ) ;
ENDSEC;
END-ISO-10303-21;
