ISO-10303-21;
HEADER;
FILE_DESCRIPTION (( 'STEP AP203' ),
    '1' );
FILE_NAME ('694.step',
    '2021-11-09T08:31:35',
    ( '' ),
    ( '' ),
    'SwSTEP 2.0',
    'SolidWorks 2019',
    '' );
FILE_SCHEMA (( 'CONFIG_CONTROL_DESIGN' ));
ENDSEC;

DATA;
#1 = FACE_OUTER_BOUND ( 'NONE', #98, .T. ) ;
#2 = CIRCLE ( 'NONE', #109, 1.999999999999996669 ) ;
#3 = CARTESIAN_POINT ( 'NONE',  ( 4.189777606611760026E-14, -1.469576158976823947E-15, 12.00000000000000000 ) ) ;
#4 = CLOSED_SHELL ( 'NONE', ( #40, #60, #203 ) ) ;
#5 = MANIFOLD_SOLID_BREP ( 'Corps-Déplacer/Copier1[1]', #119 ) ;
#6 = PRODUCT_DEFINITION_FORMATION_WITH_SPECIFIED_SOURCE ( 'ANY', '', #113, .NOT_KNOWN. ) ;
#7 = PERSON_AND_ORGANIZATION ( #169, #90 ) ;
#8 = MANIFOLD_SOLID_BREP ( 'Corps-Déplacer/Copier1[2]', #4 ) ;
#9 = ORIENTED_EDGE ( 'NONE', *, *, #188, .F. ) ;
#10 = ADVANCED_FACE ( 'NONE', ( #13 ), #95, .F. ) ;
#11 = ORIENTED_EDGE ( 'NONE', *, *, #179, .T. ) ;
#12 = CARTESIAN_POINT ( 'NONE',  ( 1.745740669421566678E-13, 1.599999999999994982, 50.00000000000000000 ) ) ;
#13 = FACE_OUTER_BOUND ( 'NONE', #39, .T. ) ;
#14 = ORIENTED_EDGE ( 'NONE', *, *, #20, .F. ) ;
#15 = APPROVAL_STATUS ( 'not_yet_approved' ) ;
#16 = DIRECTION ( 'NONE',  ( 0.0000000000000000000, 1.000000000000000000, 0.0000000000000000000 ) ) ;
#17 = PRODUCT_DEFINITION ( 'UNKNOWN', '', #6, #151 ) ;
#18 = DATE_TIME_ROLE ( 'creation_date' ) ;
#19 = APPROVAL_DATE_TIME ( #143, #25 ) ;
#20 = EDGE_CURVE ( 'NONE', #52, #52, #30, .T. ) ;
#21 = FACE_OUTER_BOUND ( 'NONE', #49, .T. ) ;
#22 = CARTESIAN_POINT ( 'NONE',  ( 4.189777606611760026E-14, 1.499759782661853229E-32, 12.00000000000000000 ) ) ;
#23 = DIRECTION ( 'NONE',  ( 0.0000000000000000000, 1.000000000000000000, 0.0000000000000000000 ) ) ;
#24 = ORIENTED_EDGE ( 'NONE', *, *, #92, .T. ) ;
#25 = APPROVAL ( #191, 'UNSPECIFIED' ) ;
#26 = LOCAL_TIME ( 9, 31, 35.00000000000000000, #130 ) ;
#27 = PERSON_AND_ORGANIZATION_ROLE ( 'classification_officer' ) ;
#28 = DIRECTION ( 'NONE',  ( 3.491481338843133355E-15, -1.224646799147353207E-16, 1.000000000000000000 ) ) ;
#29 = APPROVAL ( #15, 'UNSPECIFIED' ) ;
#30 = CIRCLE ( 'NONE', #141, 1.600000000000001199 ) ;
#31 = LOCAL_TIME ( 9, 31, 35.00000000000000000, #108 ) ;
#32 =( LENGTH_UNIT ( ) NAMED_UNIT ( * ) SI_UNIT ( .MILLI., .METRE. ) );
#33 = DIRECTION ( 'NONE',  ( 1.000000000000000000, 0.0000000000000000000, 0.0000000000000000000 ) ) ;
#34 = EDGE_LOOP ( 'NONE', ( #126 ) ) ;
#35 = AXIS2_PLACEMENT_3D ( 'NONE', #65, #189, #139 ) ;
#36 = EDGE_LOOP ( 'NONE', ( #146 ) ) ;
#37 = EDGE_LOOP ( 'NONE', ( #24 ) ) ;
#38 = CALENDAR_DATE ( 2021, 9, 11 ) ;
#39 = EDGE_LOOP ( 'NONE', ( #14 ) ) ;
#40 = ADVANCED_FACE ( 'NONE', ( #125 ), #192, .F. ) ;
#41 = DATE_AND_TIME ( #101, #26 ) ;
#42 = CARTESIAN_POINT ( 'NONE',  ( 0.0000000000000000000, 0.0000000000000000000, 0.0000000000000000000 ) ) ;
#43 = AXIS2_PLACEMENT_3D ( 'NONE', #201, #115, #182 ) ;
#44 = DIRECTION ( 'NONE',  ( -4.275831445896958607E-31, -1.000000000000000000, -1.224646799147353207E-16 ) ) ;
#45 = FACE_OUTER_BOUND ( 'NONE', #69, .T. ) ;
#46 = CC_DESIGN_PERSON_AND_ORGANIZATION_ASSIGNMENT ( #70, #124, ( #17 ) ) ;
#47 = COORDINATED_UNIVERSAL_TIME_OFFSET ( 1, 0, .AHEAD. ) ;
#48 = PERSON_AND_ORGANIZATION_ROLE ( 'design_owner' ) ;
#49 = EDGE_LOOP ( 'NONE', ( #11 ) ) ;
#50 = VERTEX_POINT ( 'NONE', #164 ) ;
#51 = CC_DESIGN_PERSON_AND_ORGANIZATION_ASSIGNMENT ( #167, #74, ( #6 ) ) ;
#52 = VERTEX_POINT ( 'NONE', #12 ) ;
#53 = APPROVAL_ROLE ( '' ) ;
#54 = ORIENTED_EDGE ( 'NONE', *, *, #188, .T. ) ;
#55 = CIRCLE ( 'NONE', #43, 1.999999999999995337 ) ;
#56 = ADVANCED_BREP_SHAPE_REPRESENTATION ( '694', ( #5, #8, #183 ), #78 ) ;
#57 = APPROVAL_DATE_TIME ( #184, #132 ) ;
#58 = DIRECTION ( 'NONE',  ( -3.491481338843133355E-15, 1.224646799147353207E-16, -1.000000000000000000 ) ) ;
#59 = CALENDAR_DATE ( 2021, 9, 11 ) ;
#60 = ADVANCED_FACE ( 'NONE', ( #72, #21 ), #61, .T. ) ;
#61 = CYLINDRICAL_SURFACE ( 'NONE', #79, 1.999999999999995781 ) ;
#62 = CARTESIAN_POINT ( 'NONE',  ( 4.189777606611760026E-14, -1.469576158976823947E-15, 12.00000000000000000 ) ) ;
#63 = DIRECTION ( 'NONE',  ( 4.275831445896958607E-31, 1.000000000000000000, 1.224646799147352961E-16 ) ) ;
#64 = VERTEX_POINT ( 'NONE', #145 ) ;
#65 = CARTESIAN_POINT ( 'NONE',  ( 1.745740669421566678E-13, -6.123233995736766085E-15, 50.00000000000000000 ) ) ;
#66 = FACE_BOUND ( 'NONE', #85, .T. ) ;
#67 = FACE_OUTER_BOUND ( 'NONE', #144, .T. ) ;
#68 = CC_DESIGN_APPROVAL ( #25, ( #17 ) ) ;
#69 = EDGE_LOOP ( 'NONE', ( #54 ) ) ;
#70 = PERSON_AND_ORGANIZATION ( #169, #90 ) ;
#71 = ORIENTED_EDGE ( 'NONE', *, *, #20, .T. ) ;
#72 = FACE_OUTER_BOUND ( 'NONE', #82, .T. ) ;
#73 = ADVANCED_FACE ( 'NONE', ( #1, #66 ), #131, .T. ) ;
#74 = PERSON_AND_ORGANIZATION_ROLE ( 'design_supplier' ) ;
#75 = COORDINATED_UNIVERSAL_TIME_OFFSET ( 1, 0, .AHEAD. ) ;
#76 = APPROVAL_DATE_TIME ( #129, #29 ) ;
#77 = DIRECTION ( 'NONE',  ( 4.275831445896958607E-31, 1.000000000000000000, 1.224646799147353207E-16 ) ) ;
#78 =( GEOMETRIC_REPRESENTATION_CONTEXT ( 3 ) GLOBAL_UNCERTAINTY_ASSIGNED_CONTEXT ( ( #114 ) ) GLOBAL_UNIT_ASSIGNED_CONTEXT ( ( #32, #140, #103 ) ) REPRESENTATION_CONTEXT ( 'NONE', 'WORKASPACE' ) );
#79 = AXIS2_PLACEMENT_3D ( 'NONE', #42, #105, #63 ) ;
#80 = APPLICATION_PROTOCOL_DEFINITION ( 'international standard', 'config_control_design', 1994, #117 ) ;
#81 = CARTESIAN_POINT ( 'NONE',  ( 4.189777606611760026E-14, 1.999999999999995337, 12.00000000000000000 ) ) ;
#82 = EDGE_LOOP ( 'NONE', ( #110 ) ) ;
#83 = PERSON_AND_ORGANIZATION ( #169, #90 ) ;
#84 = CC_DESIGN_APPROVAL ( #132, ( #178 ) ) ;
#85 = EDGE_LOOP ( 'NONE', ( #71 ) ) ;
#86 = DATE_AND_TIME ( #154, #31 ) ;
#87 = SHAPE_DEFINITION_REPRESENTATION ( #196, #56 ) ;
#88 = AXIS2_PLACEMENT_3D ( 'NONE', #3, #107, #120 ) ;
#89 = CC_DESIGN_PERSON_AND_ORGANIZATION_ASSIGNMENT ( #7, #48, ( #113 ) ) ;
#90 = ORGANIZATION ( 'UNSPECIFIED', 'UNSPECIFIED', '' ) ;
#91 = CARTESIAN_POINT ( 'NONE',  ( 0.0000000000000000000, 0.0000000000000000000, 0.0000000000000000000 ) ) ;
#92 = EDGE_CURVE ( 'NONE', #96, #96, #102, .T. ) ;
#93 = CARTESIAN_POINT ( 'NONE',  ( 0.0000000000000000000, 0.0000000000000000000, 0.0000000000000000000 ) ) ;
#94 = FACE_OUTER_BOUND ( 'NONE', #34, .T. ) ;
#95 = PLANE ( 'NONE',  #111 ) ;
#96 = VERTEX_POINT ( 'NONE', #162 ) ;
#97 = LOCAL_TIME ( 9, 31, 35.00000000000000000, #47 ) ;
#98 = EDGE_LOOP ( 'NONE', ( #9 ) ) ;
#99 = PERSON_AND_ORGANIZATION_ROLE ( 'creator' ) ;
#100 = PLANE ( 'NONE',  #159 ) ;
#101 = CALENDAR_DATE ( 2021, 9, 11 ) ;
#102 = CIRCLE ( 'NONE', #88, 1.999999999999996669 ) ;
#103 =( NAMED_UNIT ( * ) SI_UNIT ( $, .STERADIAN. ) SOLID_ANGLE_UNIT ( ) );
#104 = APPLICATION_CONTEXT ( 'configuration controlled 3d designs of mechanical parts and assemblies' ) ;
#105 = DIRECTION ( 'NONE',  ( -3.491481338843133355E-15, 1.224646799147353207E-16, -1.000000000000000000 ) ) ;
#106 = CIRCLE ( 'NONE', #147, 2.000000000000001332 ) ;
#107 = DIRECTION ( 'NONE',  ( -3.491481338843133355E-15, 1.224646799147353207E-16, -1.000000000000000000 ) ) ;
#108 = COORDINATED_UNIVERSAL_TIME_OFFSET ( 1, 0, .AHEAD. ) ;
#109 = AXIS2_PLACEMENT_3D ( 'NONE', #62, #134, #172 ) ;
#110 = ORIENTED_EDGE ( 'NONE', *, *, #194, .F. ) ;
#111 = AXIS2_PLACEMENT_3D ( 'NONE', #166, #142, #123 ) ;
#112 = APPROVAL_PERSON_ORGANIZATION ( #148, #132, #53 ) ;
#113 = PRODUCT ( '694', '694', '', ( #193 ) ) ;
#114 = UNCERTAINTY_MEASURE_WITH_UNIT (LENGTH_MEASURE( 1.000000000000000082E-05 ), #32, 'distance_accuracy_value', 'NONE');
#115 = DIRECTION ( 'NONE',  ( -3.491481338843133355E-15, 1.224646799147353207E-16, -1.000000000000000000 ) ) ;
#116 = APPROVAL_PERSON_ORGANIZATION ( #83, #25, #157 ) ;
#117 = APPLICATION_CONTEXT ( 'configuration controlled 3d designs of mechanical parts and assemblies' ) ;
#118 = DIRECTION ( 'NONE',  ( 3.491481338843133355E-15, -1.224646799147353207E-16, 1.000000000000000000 ) ) ;
#119 = CLOSED_SHELL ( 'NONE', ( #181, #158, #73, #10 ) ) ;
#120 = DIRECTION ( 'NONE',  ( 0.0000000000000000000, 1.000000000000000000, 0.0000000000000000000 ) ) ;
#121 = LOCAL_TIME ( 9, 31, 35.00000000000000000, #75 ) ;
#122 = APPLICATION_PROTOCOL_DEFINITION ( 'international standard', 'config_control_design', 1994, #104 ) ;
#123 = DIRECTION ( 'NONE',  ( 4.275831445896958607E-31, 1.000000000000000000, 1.224646799147353207E-16 ) ) ;
#124 = PERSON_AND_ORGANIZATION_ROLE ( 'creator' ) ;
#125 = FACE_OUTER_BOUND ( 'NONE', #36, .T. ) ;
#126 = ORIENTED_EDGE ( 'NONE', *, *, #92, .F. ) ;
#127 = PLANE ( 'NONE',  #163 ) ;
#128 = CARTESIAN_POINT ( 'NONE',  ( 1.745740669421566678E-13, -6.123233995736766085E-15, 50.00000000000000000 ) ) ;
#129 = DATE_AND_TIME ( #168, #197 ) ;
#130 = COORDINATED_UNIVERSAL_TIME_OFFSET ( 1, 0, .AHEAD. ) ;
#131 = CONICAL_SURFACE ( 'NONE', #35, 1.600000000000001199, 0.7853981633974516097 ) ;
#132 = APPROVAL ( #171, 'UNSPECIFIED' ) ;
#133 = PERSON_AND_ORGANIZATION ( #169, #90 ) ;
#134 = DIRECTION ( 'NONE',  ( -3.491481338843133355E-15, 1.224646799147353207E-16, -1.000000000000000000 ) ) ;
#135 = APPROVAL_PERSON_ORGANIZATION ( #150, #29, #200 ) ;
#136 = CC_DESIGN_DATE_AND_TIME_ASSIGNMENT ( #86, #18, ( #17 ) ) ;
#137 = CC_DESIGN_APPROVAL ( #29, ( #6 ) ) ;
#138 = CC_DESIGN_PERSON_AND_ORGANIZATION_ASSIGNMENT ( #202, #27, ( #178 ) ) ;
#139 = DIRECTION ( 'NONE',  ( 0.0000000000000000000, 1.000000000000000000, 0.0000000000000000000 ) ) ;
#140 =( NAMED_UNIT ( * ) PLANE_ANGLE_UNIT ( ) SI_UNIT ( $, .RADIAN. ) );
#141 = AXIS2_PLACEMENT_3D ( 'NONE', #128, #161, #23 ) ;
#142 = DIRECTION ( 'NONE',  ( -3.491481338843133355E-15, 1.224646799147353207E-16, -1.000000000000000000 ) ) ;
#143 = DATE_AND_TIME ( #38, #97 ) ;
#144 = EDGE_LOOP ( 'NONE', ( #165 ) ) ;
#145 = CARTESIAN_POINT ( 'NONE',  ( 1.731774744066194397E-13, 1.999999999999995337, 49.60000000000000853 ) ) ;
#146 = ORIENTED_EDGE ( 'NONE', *, *, #194, .T. ) ;
#147 = AXIS2_PLACEMENT_3D ( 'NONE', #199, #58, #16 ) ;
#148 = PERSON_AND_ORGANIZATION ( #169, #90 ) ;
#149 = SECURITY_CLASSIFICATION_LEVEL ( 'unclassified' ) ;
#150 = PERSON_AND_ORGANIZATION ( #169, #90 ) ;
#151 = DESIGN_CONTEXT ( 'detailed design', #104, 'design' ) ;
#152 = DIRECTION ( 'NONE',  ( -4.275831445896958607E-31, -1.000000000000000000, -1.224646799147353207E-16 ) ) ;
#153 = CC_DESIGN_SECURITY_CLASSIFICATION ( #178, ( #6 ) ) ;
#154 = CALENDAR_DATE ( 2021, 9, 11 ) ;
#155 = AXIS2_PLACEMENT_3D ( 'NONE', #91, #156, #77 ) ;
#156 = DIRECTION ( 'NONE',  ( -3.491481338843133355E-15, 1.224646799147353207E-16, -1.000000000000000000 ) ) ;
#157 = APPROVAL_ROLE ( '' ) ;
#158 = ADVANCED_FACE ( 'NONE', ( #94, #45 ), #177, .T. ) ;
#159 = AXIS2_PLACEMENT_3D ( 'NONE', #174, #28, #170 ) ;
#160 = CC_DESIGN_DATE_AND_TIME_ASSIGNMENT ( #41, #198, ( #178 ) ) ;
#161 = DIRECTION ( 'NONE',  ( -3.491481338843133355E-15, 1.224646799147353207E-16, -1.000000000000000000 ) ) ;
#162 = CARTESIAN_POINT ( 'NONE',  ( 4.189777606611760026E-14, 1.999999999999995337, 12.00000000000000000 ) ) ;
#163 = AXIS2_PLACEMENT_3D ( 'NONE', #22, #118, #44 ) ;
#164 = CARTESIAN_POINT ( 'NONE',  ( 2.137876538271899380E-31, 1.999999999999995337, 6.123121766362532060E-17 ) ) ;
#165 = ORIENTED_EDGE ( 'NONE', *, *, #179, .F. ) ;
#166 = CARTESIAN_POINT ( 'NONE',  ( 1.745740669421566678E-13, 1.199807826129477876E-32, 50.00000000000000000 ) ) ;
#167 = PERSON_AND_ORGANIZATION ( #169, #90 ) ;
#168 = CALENDAR_DATE ( 2021, 9, 11 ) ;
#169 = PERSON ( 'UNSPECIFIED', 'UNSPECIFIED', 'UNSPECIFIED', ('UNSPECIFIED'), ('UNSPECIFIED'), ('UNSPECIFIED') ) ;
#170 = DIRECTION ( 'NONE',  ( -4.275831445896958607E-31, -1.000000000000000000, -1.224646799147353207E-16 ) ) ;
#171 = APPROVAL_STATUS ( 'not_yet_approved' ) ;
#172 = DIRECTION ( 'NONE',  ( 0.0000000000000000000, 1.000000000000000000, 0.0000000000000000000 ) ) ;
#173 = AXIS2_PLACEMENT_3D ( 'NONE', #175, #185, #152 ) ;
#174 = CARTESIAN_POINT ( 'NONE',  ( 4.189777606611760026E-14, 1.499759782661853229E-32, 12.00000000000000000 ) ) ;
#175 = CARTESIAN_POINT ( 'NONE',  ( -3.206893176760999064E-31, 1.124826709063586057E-32, -9.184907108292236459E-17 ) ) ;
#176 = PRODUCT_RELATED_PRODUCT_CATEGORY ( 'detail', '', ( #113 ) ) ;
#177 = CYLINDRICAL_SURFACE ( 'NONE', #155, 1.999999999999999112 ) ;
#178 = SECURITY_CLASSIFICATION ( '', '', #149 ) ;
#179 = EDGE_CURVE ( 'NONE', #195, #195, #2, .T. ) ;
#180 = DIRECTION ( 'NONE',  ( 0.0000000000000000000, 0.0000000000000000000, 1.000000000000000000 ) ) ;
#181 = ADVANCED_FACE ( 'NONE', ( #187 ), #100, .F. ) ;
#182 = DIRECTION ( 'NONE',  ( 4.275831445896958607E-31, 1.000000000000000000, 1.224646799147353207E-16 ) ) ;
#183 = AXIS2_PLACEMENT_3D ( 'NONE', #93, #180, #33 ) ;
#184 = DATE_AND_TIME ( #59, #121 ) ;
#185 = DIRECTION ( 'NONE',  ( 3.491481338843133355E-15, -1.224646799147353207E-16, 1.000000000000000000 ) ) ;
#186 = COORDINATED_UNIVERSAL_TIME_OFFSET ( 1, 0, .AHEAD. ) ;
#187 = FACE_OUTER_BOUND ( 'NONE', #37, .T. ) ;
#188 = EDGE_CURVE ( 'NONE', #64, #64, #106, .T. ) ;
#189 = DIRECTION ( 'NONE',  ( -3.491481338843133355E-15, 1.224646799147353207E-16, -1.000000000000000000 ) ) ;
#190 = CC_DESIGN_PERSON_AND_ORGANIZATION_ASSIGNMENT ( #133, #99, ( #6 ) ) ;
#191 = APPROVAL_STATUS ( 'not_yet_approved' ) ;
#192 = PLANE ( 'NONE',  #173 ) ;
#193 = MECHANICAL_CONTEXT ( 'NONE', #117, 'mechanical' ) ;
#194 = EDGE_CURVE ( 'NONE', #50, #50, #55, .T. ) ;
#195 = VERTEX_POINT ( 'NONE', #81 ) ;
#196 = PRODUCT_DEFINITION_SHAPE ( 'NONE', 'NONE',  #17 ) ;
#197 = LOCAL_TIME ( 9, 31, 35.00000000000000000, #186 ) ;
#198 = DATE_TIME_ROLE ( 'classification_date' ) ;
#199 = CARTESIAN_POINT ( 'NONE',  ( 1.731774744066194397E-13, -6.074248123770872657E-15, 49.60000000000000853 ) ) ;
#200 = APPROVAL_ROLE ( '' ) ;
#201 = CARTESIAN_POINT ( 'NONE',  ( -6.413786353521998128E-31, 2.249653418127172114E-32, -1.836981421658447292E-16 ) ) ;
#202 = PERSON_AND_ORGANIZATION ( #169, #90 ) ;
#203 = ADVANCED_FACE ( 'NONE', ( #67 ), #127, .T. ) ;
ENDSEC;
END-ISO-10303-21;
