ISO-10303-21;
HEADER;
FILE_DESCRIPTION (( 'STEP AP203' ),
    '1' );
FILE_NAME ('693.step',
    '2021-11-09T08:31:34',
    ( '' ),
    ( '' ),
    'SwSTEP 2.0',
    'SolidWorks 2019',
    '' );
FILE_SCHEMA (( 'CONFIG_CONTROL_DESIGN' ));
ENDSEC;

DATA;
#1 = VERTEX_POINT ( 'NONE', #93 ) ;
#2 = ADVANCED_FACE ( 'NONE', ( #156 ), #123, .F. ) ;
#3 = VERTEX_POINT ( 'NONE', #65 ) ;
#4 = DIRECTION ( 'NONE',  ( 4.275831445896958607E-31, 1.000000000000000000, 1.224646799147353454E-16 ) ) ;
#5 = CLOSED_SHELL ( 'NONE', ( #2, #105, #32 ) ) ;
#6 = CARTESIAN_POINT ( 'NONE',  ( 0.0000000000000000000, 0.0000000000000000000, 0.0000000000000000000 ) ) ;
#7 = COORDINATED_UNIVERSAL_TIME_OFFSET ( 1, 0, .AHEAD. ) ;
#8 = COORDINATED_UNIVERSAL_TIME_OFFSET ( 1, 0, .AHEAD. ) ;
#9 = CIRCLE ( 'NONE', #202, 1.200000000000000844 ) ;
#10 = APPLICATION_PROTOCOL_DEFINITION ( 'international standard', 'config_control_design', 1994, #44 ) ;
#11 = ORIENTED_EDGE ( 'NONE', *, *, #17, .F. ) ;
#12 = EDGE_CURVE ( 'NONE', #49, #49, #147, .T. ) ;
#13 = CC_DESIGN_PERSON_AND_ORGANIZATION_ASSIGNMENT ( #107, #66, ( #42 ) ) ;
#14 = DIRECTION ( 'NONE',  ( 0.0000000000000000000, 1.000000000000000000, 0.0000000000000000000 ) ) ;
#15 = DIRECTION ( 'NONE',  ( -4.275831445896958607E-31, -1.000000000000000000, -1.224646799147353207E-16 ) ) ;
#16 = CIRCLE ( 'NONE', #56, 1.499999999999997335 ) ;
#17 = EDGE_CURVE ( 'NONE', #106, #106, #16, .T. ) ;
#18 =( NAMED_UNIT ( * ) SI_UNIT ( $, .STERADIAN. ) SOLID_ANGLE_UNIT ( ) );
#19 = PERSON_AND_ORGANIZATION_ROLE ( 'creator' ) ;
#20 = EDGE_LOOP ( 'NONE', ( #125 ) ) ;
#21 = ADVANCED_FACE ( 'NONE', ( #199, #117 ), #79, .T. ) ;
#22 = PERSON_AND_ORGANIZATION ( #108, #92 ) ;
#23 = PRODUCT_RELATED_PRODUCT_CATEGORY ( 'detail', '', ( #81 ) ) ;
#24 = EDGE_LOOP ( 'NONE', ( #145 ) ) ;
#25 = CIRCLE ( 'NONE', #134, 1.500000000000000666 ) ;
#26 = ORIENTED_EDGE ( 'NONE', *, *, #172, .F. ) ;
#27 = FACE_OUTER_BOUND ( 'NONE', #129, .T. ) ;
#28 = FACE_OUTER_BOUND ( 'NONE', #70, .T. ) ;
#29 = AXIS2_PLACEMENT_3D ( 'NONE', #39, #98, #97 ) ;
#30 = DIRECTION ( 'NONE',  ( -3.491481338843133355E-15, 1.224646799147353207E-16, -1.000000000000000000 ) ) ;
#31 = CC_DESIGN_APPROVAL ( #118, ( #161 ) ) ;
#32 = ADVANCED_FACE ( 'NONE', ( #88 ), #100, .T. ) ;
#33 = CARTESIAN_POINT ( 'NONE',  ( 3.491481338843133355E-14, 1.499999999999996225, 10.00000000000000000 ) ) ;
#34 = PERSON_AND_ORGANIZATION_ROLE ( 'classification_officer' ) ;
#35 = PERSON_AND_ORGANIZATION ( #108, #92 ) ;
#36 = AXIS2_PLACEMENT_3D ( 'NONE', #137, #64, #4 ) ;
#37 = PERSON_AND_ORGANIZATION_ROLE ( 'creator' ) ;
#38 = EDGE_LOOP ( 'NONE', ( #174 ) ) ;
#39 = CARTESIAN_POINT ( 'NONE',  ( -5.344693376282569354E-31, 1.874666080230933278E-32, -1.530781023178396280E-16 ) ) ;
#40 = CALENDAR_DATE ( 2021, 9, 11 ) ;
#41 = CARTESIAN_POINT ( 'NONE',  ( 3.491481338843133355E-14, 1.124819836996389511E-32, 10.00000000000000000 ) ) ;
#42 = PRODUCT_DEFINITION_FORMATION_WITH_SPECIFIED_SOURCE ( 'ANY', '', #81, .NOT_KNOWN. ) ;
#43 = DIRECTION ( 'NONE',  ( 0.0000000000000000000, 1.000000000000000000, 0.0000000000000000000 ) ) ;
#44 = APPLICATION_CONTEXT ( 'configuration controlled 3d designs of mechanical parts and assemblies' ) ;
#45 = DIRECTION ( 'NONE',  ( -4.275831445896958607E-31, -1.000000000000000000, -1.224646799147353207E-16 ) ) ;
#46 = CARTESIAN_POINT ( 'NONE',  ( 1.326762908760390423E-13, 1.199999999999996181, 38.00000000000000000 ) ) ;
#47 = VERTEX_POINT ( 'NONE', #46 ) ;
#48 = CIRCLE ( 'NONE', #159, 1.499999999999997335 ) ;
#49 = VERTEX_POINT ( 'NONE', #188 ) ;
#50 = APPROVAL ( #126, 'UNSPECIFIED' ) ;
#51 = APPROVAL_PERSON_ORGANIZATION ( #176, #139, #83 ) ;
#52 = DESIGN_CONTEXT ( 'detailed design', #169, 'design' ) ;
#53 = COORDINATED_UNIVERSAL_TIME_OFFSET ( 1, 0, .AHEAD. ) ;
#54 = PERSON_AND_ORGANIZATION_ROLE ( 'design_owner' ) ;
#55 = DATE_TIME_ROLE ( 'classification_date' ) ;
#56 = AXIS2_PLACEMENT_3D ( 'NONE', #158, #87, #43 ) ;
#57 = LOCAL_TIME ( 9, 31, 34.00000000000000000, #122 ) ;
#58 = DIRECTION ( 'NONE',  ( 3.491481338843133355E-15, -1.224646799147353207E-16, 1.000000000000000000 ) ) ;
#59 = APPROVAL_STATUS ( 'not_yet_approved' ) ;
#60 = LOCAL_TIME ( 9, 31, 34.00000000000000000, #7 ) ;
#61 = PLANE ( 'NONE',  #183 ) ;
#62 = DIRECTION ( 'NONE',  ( -3.491481338843133355E-15, 1.224646799147353207E-16, -1.000000000000000000 ) ) ;
#63 = DIRECTION ( 'NONE',  ( 4.275831445896958607E-31, 1.000000000000000000, 1.224646799147353454E-16 ) ) ;
#64 = DIRECTION ( 'NONE',  ( -3.491481338843133355E-15, 1.224646799147353207E-16, -1.000000000000000000 ) ) ;
#65 = CARTESIAN_POINT ( 'NONE',  ( 3.491481338843133355E-14, 1.499999999999996225, 10.00000000000000000 ) ) ;
#66 = PERSON_AND_ORGANIZATION_ROLE ( 'design_supplier' ) ;
#67 = AXIS2_PLACEMENT_3D ( 'NONE', #6, #109, #95 ) ;
#68 = ADVANCED_FACE ( 'NONE', ( #76 ), #90, .F. ) ;
#69 = PERSON_AND_ORGANIZATION ( #108, #92 ) ;
#70 = EDGE_LOOP ( 'NONE', ( #178 ) ) ;
#71 = CALENDAR_DATE ( 2021, 9, 11 ) ;
#72 = AXIS2_PLACEMENT_3D ( 'NONE', #203, #180, #165 ) ;
#73 = CC_DESIGN_SECURITY_CLASSIFICATION ( #121, ( #42 ) ) ;
#74 = ADVANCED_FACE ( 'NONE', ( #148 ), #61, .F. ) ;
#75 = DIRECTION ( 'NONE',  ( -3.491481338843133355E-15, 1.224646799147353207E-16, -1.000000000000000000 ) ) ;
#76 = FACE_OUTER_BOUND ( 'NONE', #84, .T. ) ;
#77 = LOCAL_TIME ( 9, 31, 34.00000000000000000, #94 ) ;
#78 = MANIFOLD_SOLID_BREP ( 'Corps-Déplacer/Copier1[1]', #82 ) ;
#79 = CONICAL_SURFACE ( 'NONE', #102, 1.200000000000000844, 0.7853981633974453924 ) ;
#80 =( GEOMETRIC_REPRESENTATION_CONTEXT ( 3 ) GLOBAL_UNCERTAINTY_ASSIGNED_CONTEXT ( ( #120 ) ) GLOBAL_UNIT_ASSIGNED_CONTEXT ( ( #167, #186, #18 ) ) REPRESENTATION_CONTEXT ( 'NONE', 'WORKASPACE' ) );
#81 = PRODUCT ( '693', '693', '', ( #154 ) ) ;
#82 = CLOSED_SHELL ( 'NONE', ( #74, #201, #21, #68 ) ) ;
#83 = APPROVAL_ROLE ( '' ) ;
#84 = EDGE_LOOP ( 'NONE', ( #110 ) ) ;
#85 = DATE_AND_TIME ( #152, #60 ) ;
#86 = DATE_AND_TIME ( #40, #77 ) ;
#87 = DIRECTION ( 'NONE',  ( -3.491481338843133355E-15, 1.224646799147353207E-16, -1.000000000000000000 ) ) ;
#88 = FACE_OUTER_BOUND ( 'NONE', #189, .T. ) ;
#89 = CC_DESIGN_PERSON_AND_ORGANIZATION_ASSIGNMENT ( #35, #19, ( #161 ) ) ;
#90 = PLANE ( 'NONE',  #72 ) ;
#91 = CARTESIAN_POINT ( 'NONE',  ( 3.491481338843133355E-14, -1.224646799147353256E-15, 10.00000000000000000 ) ) ;
#92 = ORGANIZATION ( 'UNSPECIFIED', 'UNSPECIFIED', '' ) ;
#93 = CARTESIAN_POINT ( 'NONE',  ( 1.316288464743861212E-13, 1.499999999999996225, 37.69999999999999574 ) ) ;
#94 = COORDINATED_UNIVERSAL_TIME_OFFSET ( 1, 0, .AHEAD. ) ;
#95 = DIRECTION ( 'NONE',  ( 1.000000000000000000, 0.0000000000000000000, 0.0000000000000000000 ) ) ;
#96 = CARTESIAN_POINT ( 'NONE',  ( -2.672346688141284677E-31, 9.373330401154666388E-33, -7.653905115891981398E-17 ) ) ;
#97 = DIRECTION ( 'NONE',  ( 4.275831445896958607E-31, 1.000000000000000000, 1.224646799147353207E-16 ) ) ;
#98 = DIRECTION ( 'NONE',  ( -3.491481338843133355E-15, 1.224646799147353207E-16, -1.000000000000000000 ) ) ;
#99 = CC_DESIGN_APPROVAL ( #139, ( #42 ) ) ;
#100 = PLANE ( 'NONE',  #162 ) ;
#101 = DIRECTION ( 'NONE',  ( 3.491481338843133355E-15, -1.224646799147353207E-16, 1.000000000000000000 ) ) ;
#102 = AXIS2_PLACEMENT_3D ( 'NONE', #198, #114, #130 ) ;
#103 = LOCAL_TIME ( 9, 31, 34.00000000000000000, #8 ) ;
#104 = CARTESIAN_POINT ( 'NONE',  ( 3.491481338843133355E-14, 1.124819836996389511E-32, 10.00000000000000000 ) ) ;
#105 = ADVANCED_FACE ( 'NONE', ( #28, #27 ), #146, .T. ) ;
#106 = VERTEX_POINT ( 'NONE', #33 ) ;
#107 = PERSON_AND_ORGANIZATION ( #108, #92 ) ;
#108 = PERSON ( 'UNSPECIFIED', 'UNSPECIFIED', 'UNSPECIFIED', ('UNSPECIFIED'), ('UNSPECIFIED'), ('UNSPECIFIED') ) ;
#109 = DIRECTION ( 'NONE',  ( 0.0000000000000000000, 0.0000000000000000000, 1.000000000000000000 ) ) ;
#110 = ORIENTED_EDGE ( 'NONE', *, *, #135, .F. ) ;
#111 = APPROVAL_DATE_TIME ( #128, #50 ) ;
#112 = DIRECTION ( 'NONE',  ( -4.275831445896958607E-31, -1.000000000000000000, -1.224646799147353207E-16 ) ) ;
#113 = APPROVAL_DATE_TIME ( #157, #118 ) ;
#114 = DIRECTION ( 'NONE',  ( -3.491481338843133355E-15, 1.224646799147353207E-16, -1.000000000000000000 ) ) ;
#115 = CARTESIAN_POINT ( 'NONE',  ( 0.0000000000000000000, 0.0000000000000000000, 0.0000000000000000000 ) ) ;
#116 = DIRECTION ( 'NONE',  ( 0.0000000000000000000, 1.000000000000000000, 0.0000000000000000000 ) ) ;
#117 = FACE_BOUND ( 'NONE', #24, .T. ) ;
#118 = APPROVAL ( #59, 'UNSPECIFIED' ) ;
#119 = AXIS2_PLACEMENT_3D ( 'NONE', #96, #58, #112 ) ;
#120 = UNCERTAINTY_MEASURE_WITH_UNIT (LENGTH_MEASURE( 1.000000000000000082E-05 ), #167, 'distance_accuracy_value', 'NONE');
#121 = SECURITY_CLASSIFICATION ( '', '', #170 ) ;
#122 = COORDINATED_UNIVERSAL_TIME_OFFSET ( 1, 0, .AHEAD. ) ;
#123 = PLANE ( 'NONE',  #119 ) ;
#124 = PERSON_AND_ORGANIZATION ( #108, #92 ) ;
#125 = ORIENTED_EDGE ( 'NONE', *, *, #12, .T. ) ;
#126 = APPROVAL_STATUS ( 'not_yet_approved' ) ;
#127 = ORIENTED_EDGE ( 'NONE', *, *, #172, .T. ) ;
#128 = DATE_AND_TIME ( #71, #103 ) ;
#129 = EDGE_LOOP ( 'NONE', ( #141 ) ) ;
#130 = DIRECTION ( 'NONE',  ( 0.0000000000000000000, 1.000000000000000000, 0.0000000000000000000 ) ) ;
#131 = ADVANCED_BREP_SHAPE_REPRESENTATION ( '693', ( #78, #142, #67 ), #80 ) ;
#132 = DIRECTION ( 'NONE',  ( 3.491481338843133355E-15, -1.224646799147353207E-16, 1.000000000000000000 ) ) ;
#133 = FACE_OUTER_BOUND ( 'NONE', #38, .T. ) ;
#134 = AXIS2_PLACEMENT_3D ( 'NONE', #182, #30, #163 ) ;
#135 = EDGE_CURVE ( 'NONE', #47, #47, #9, .T. ) ;
#136 = PRODUCT_DEFINITION_SHAPE ( 'NONE', 'NONE',  #161 ) ;
#137 = CARTESIAN_POINT ( 'NONE',  ( 0.0000000000000000000, 0.0000000000000000000, 0.0000000000000000000 ) ) ;
#138 = CC_DESIGN_PERSON_AND_ORGANIZATION_ASSIGNMENT ( #22, #34, ( #121 ) ) ;
#139 = APPROVAL ( #143, 'UNSPECIFIED' ) ;
#140 = PERSON_AND_ORGANIZATION ( #108, #92 ) ;
#141 = ORIENTED_EDGE ( 'NONE', *, *, #17, .T. ) ;
#142 = MANIFOLD_SOLID_BREP ( 'Corps-Déplacer/Copier1[2]', #5 ) ;
#143 = APPROVAL_STATUS ( 'not_yet_approved' ) ;
#144 = DATE_AND_TIME ( #179, #57 ) ;
#145 = ORIENTED_EDGE ( 'NONE', *, *, #135, .T. ) ;
#146 = CYLINDRICAL_SURFACE ( 'NONE', #168, 1.499999999999996669 ) ;
#147 = CIRCLE ( 'NONE', #29, 1.499999999999996225 ) ;
#148 = FACE_OUTER_BOUND ( 'NONE', #192, .T. ) ;
#149 = EDGE_CURVE ( 'NONE', #1, #1, #25, .T. ) ;
#150 = DIRECTION ( 'NONE',  ( -3.491481338843133355E-15, 1.224646799147353207E-16, -1.000000000000000000 ) ) ;
#151 = APPROVAL_DATE_TIME ( #144, #139 ) ;
#152 = CALENDAR_DATE ( 2021, 9, 11 ) ;
#153 = EDGE_LOOP ( 'NONE', ( #26 ) ) ;
#154 = MECHANICAL_CONTEXT ( 'NONE', #44, 'mechanical' ) ;
#155 = APPLICATION_PROTOCOL_DEFINITION ( 'international standard', 'config_control_design', 1994, #169 ) ;
#156 = FACE_OUTER_BOUND ( 'NONE', #20, .T. ) ;
#157 = DATE_AND_TIME ( #173, #185 ) ;
#158 = CARTESIAN_POINT ( 'NONE',  ( 3.491481338843133355E-14, -1.224646799147353256E-15, 10.00000000000000000 ) ) ;
#159 = AXIS2_PLACEMENT_3D ( 'NONE', #91, #150, #14 ) ;
#160 = CARTESIAN_POINT ( 'NONE',  ( 1.326762908760390423E-13, -4.653657836759941941E-15, 38.00000000000000000 ) ) ;
#161 = PRODUCT_DEFINITION ( 'UNKNOWN', '', #42, #52 ) ;
#162 = AXIS2_PLACEMENT_3D ( 'NONE', #104, #132, #15 ) ;
#163 = DIRECTION ( 'NONE',  ( 0.0000000000000000000, 1.000000000000000000, 0.0000000000000000000 ) ) ;
#164 = APPROVAL_PERSON_ORGANIZATION ( #190, #118, #196 ) ;
#165 = DIRECTION ( 'NONE',  ( 4.275831445896958607E-31, 1.000000000000000000, 1.224646799147353207E-16 ) ) ;
#166 = CC_DESIGN_APPROVAL ( #50, ( #121 ) ) ;
#167 =( LENGTH_UNIT ( ) NAMED_UNIT ( * ) SI_UNIT ( .MILLI., .METRE. ) );
#168 = AXIS2_PLACEMENT_3D ( 'NONE', #115, #75, #63 ) ;
#169 = APPLICATION_CONTEXT ( 'configuration controlled 3d designs of mechanical parts and assemblies' ) ;
#170 = SECURITY_CLASSIFICATION_LEVEL ( 'unclassified' ) ;
#171 = ORIENTED_EDGE ( 'NONE', *, *, #149, .F. ) ;
#172 = EDGE_CURVE ( 'NONE', #3, #3, #48, .T. ) ;
#173 = CALENDAR_DATE ( 2021, 9, 11 ) ;
#174 = ORIENTED_EDGE ( 'NONE', *, *, #149, .T. ) ;
#175 = CC_DESIGN_DATE_AND_TIME_ASSIGNMENT ( #85, #55, ( #121 ) ) ;
#176 = PERSON_AND_ORGANIZATION ( #108, #92 ) ;
#177 = SHAPE_DEFINITION_REPRESENTATION ( #136, #131 ) ;
#178 = ORIENTED_EDGE ( 'NONE', *, *, #12, .F. ) ;
#179 = CALENDAR_DATE ( 2021, 9, 11 ) ;
#180 = DIRECTION ( 'NONE',  ( -3.491481338843133355E-15, 1.224646799147353207E-16, -1.000000000000000000 ) ) ;
#181 = CC_DESIGN_DATE_AND_TIME_ASSIGNMENT ( #86, #194, ( #161 ) ) ;
#182 = CARTESIAN_POINT ( 'NONE',  ( 1.316288464743861212E-13, -4.616918432785521081E-15, 37.69999999999999574 ) ) ;
#183 = AXIS2_PLACEMENT_3D ( 'NONE', #41, #101, #45 ) ;
#184 = FACE_OUTER_BOUND ( 'NONE', #153, .T. ) ;
#185 = LOCAL_TIME ( 9, 31, 34.00000000000000000, #53 ) ;
#186 =( NAMED_UNIT ( * ) PLANE_ANGLE_UNIT ( ) SI_UNIT ( $, .RADIAN. ) );
#187 = CC_DESIGN_PERSON_AND_ORGANIZATION_ASSIGNMENT ( #140, #37, ( #42 ) ) ;
#188 = CARTESIAN_POINT ( 'NONE',  ( 1.069053792562852354E-31, 1.499999999999996225, 3.061891755426287241E-17 ) ) ;
#189 = EDGE_LOOP ( 'NONE', ( #11 ) ) ;
#190 = PERSON_AND_ORGANIZATION ( #108, #92 ) ;
#191 = APPROVAL_ROLE ( '' ) ;
#192 = EDGE_LOOP ( 'NONE', ( #127 ) ) ;
#193 = APPROVAL_PERSON_ORGANIZATION ( #69, #50, #191 ) ;
#194 = DATE_TIME_ROLE ( 'creation_date' ) ;
#195 = EDGE_LOOP ( 'NONE', ( #171 ) ) ;
#196 = APPROVAL_ROLE ( '' ) ;
#197 = CC_DESIGN_PERSON_AND_ORGANIZATION_ASSIGNMENT ( #124, #54, ( #81 ) ) ;
#198 = CARTESIAN_POINT ( 'NONE',  ( 1.326762908760390423E-13, -4.653657836759941941E-15, 38.00000000000000000 ) ) ;
#199 = FACE_OUTER_BOUND ( 'NONE', #195, .T. ) ;
#200 = CYLINDRICAL_SURFACE ( 'NONE', #36, 1.499999999999999112 ) ;
#201 = ADVANCED_FACE ( 'NONE', ( #184, #133 ), #200, .T. ) ;
#202 = AXIS2_PLACEMENT_3D ( 'NONE', #160, #62, #116 ) ;
#203 = CARTESIAN_POINT ( 'NONE',  ( 1.326762908760390423E-13, 8.998558695971082698E-33, 38.00000000000000000 ) ) ;
ENDSEC;
END-ISO-10303-21;
