ISO-10303-21;
HEADER;
FILE_DESCRIPTION (( 'STEP AP203' ),
    '1' );
FILE_NAME ('692.step',
    '2021-11-09T08:31:34',
    ( '' ),
    ( '' ),
    'SwSTEP 2.0',
    'SolidWorks 2019',
    '' );
FILE_SCHEMA (( 'CONFIG_CONTROL_DESIGN' ));
ENDSEC;

DATA;
#1 = DIRECTION ( 'NONE',  ( 0.0000000000000000000, 1.000000000000000000, 0.0000000000000000000 ) ) ;
#2 = FACE_OUTER_BOUND ( 'NONE', #61, .T. ) ;
#3 = CC_DESIGN_PERSON_AND_ORGANIZATION_ASSIGNMENT ( #118, #90, ( #146 ) ) ;
#4 = CC_DESIGN_APPROVAL ( #78, ( #43 ) ) ;
#5 = CARTESIAN_POINT ( 'NONE',  ( 2.793185071074506684E-14, 1.249999999999996225, 8.000000000000000000 ) ) ;
#6 = CARTESIAN_POINT ( 'NONE',  ( 0.0000000000000000000, 0.0000000000000000000, 0.0000000000000000000 ) ) ;
#7 = DIRECTION ( 'NONE',  ( 4.275831445896958607E-31, 1.000000000000000000, 1.224646799147352961E-16 ) ) ;
#8 = DATE_AND_TIME ( #153, #77 ) ;
#9 = CALENDAR_DATE ( 2021, 9, 11 ) ;
#10 = DIRECTION ( 'NONE',  ( 1.000000000000000000, 0.0000000000000000000, 0.0000000000000000000 ) ) ;
#11 = AXIS2_PLACEMENT_3D ( 'NONE', #20, #98, #116 ) ;
#12 = PERSON_AND_ORGANIZATION ( #45, #170 ) ;
#13 = EDGE_CURVE ( 'NONE', #67, #67, #141, .T. ) ;
#14 = DESIGN_CONTEXT ( 'detailed design', #122, 'design' ) ;
#15 = AXIS2_PLACEMENT_3D ( 'NONE', #149, #25, #85 ) ;
#16 = DIRECTION ( 'NONE',  ( 0.0000000000000000000, 1.000000000000000000, 0.0000000000000000000 ) ) ;
#17 = EDGE_LOOP ( 'NONE', ( #95 ) ) ;
#18 =( NAMED_UNIT ( * ) SI_UNIT ( $, .STERADIAN. ) SOLID_ANGLE_UNIT ( ) );
#19 = EDGE_CURVE ( 'NONE', #70, #70, #96, .T. ) ;
#20 = CARTESIAN_POINT ( 'NONE',  ( 2.793185071074506684E-14, 9.373498641636573101E-33, 8.000000000000000000 ) ) ;
#21 = DIRECTION ( 'NONE',  ( -3.491481338843133355E-15, 1.224646799147353207E-16, -1.000000000000000000 ) ) ;
#22 = APPROVAL_PERSON_ORGANIZATION ( #169, #168, #74 ) ;
#23 = CARTESIAN_POINT ( 'NONE',  ( 2.793185071074506684E-14, 1.249999999999996225, 8.000000000000000000 ) ) ;
#24 = APPROVAL ( #137, 'UNSPECIFIED' ) ;
#25 = DIRECTION ( 'NONE',  ( -3.491481338843133355E-15, 1.224646799147353207E-16, -1.000000000000000000 ) ) ;
#26 = CIRCLE ( 'NONE', #138, 1.250000000000000000 ) ;
#27 = CALENDAR_DATE ( 2021, 9, 11 ) ;
#28 = COORDINATED_UNIVERSAL_TIME_OFFSET ( 1, 0, .AHEAD. ) ;
#29 = APPLICATION_PROTOCOL_DEFINITION ( 'international standard', 'config_control_design', 1994, #122 ) ;
#30 = DATE_AND_TIME ( #132, #187 ) ;
#31 = MANIFOLD_SOLID_BREP ( 'Corps-Déplacer/Copier1[1]', #135 ) ;
#32 = MANIFOLD_SOLID_BREP ( 'Corps-Déplacer/Copier1[2]', #62 ) ;
#33 = DIRECTION ( 'NONE',  ( -3.491481338843133355E-15, 1.224646799147353207E-16, -1.000000000000000000 ) ) ;
#34 = ORIENTED_EDGE ( 'NONE', *, *, #57, .T. ) ;
#35 = FACE_OUTER_BOUND ( 'NONE', #142, .T. ) ;
#36 = AXIS2_PLACEMENT_3D ( 'NONE', #158, #107, #16 ) ;
#37 = ADVANCED_FACE ( 'NONE', ( #203 ), #63, .F. ) ;
#38 = DIRECTION ( 'NONE',  ( 4.275831445896959482E-31, 1.000000000000000000, 1.224646799147353454E-16 ) ) ;
#39 = CARTESIAN_POINT ( 'NONE',  ( 0.0000000000000000000, 0.0000000000000000000, 0.0000000000000000000 ) ) ;
#40 = VERTEX_POINT ( 'NONE', #161 ) ;
#41 = COORDINATED_UNIVERSAL_TIME_OFFSET ( 1, 0, .AHEAD. ) ;
#42 = CC_DESIGN_PERSON_AND_ORGANIZATION_ASSIGNMENT ( #58, #171, ( #43 ) ) ;
#43 = PRODUCT_DEFINITION_FORMATION_WITH_SPECIFIED_SOURCE ( 'ANY', '', #128, .NOT_KNOWN. ) ;
#44 = DATE_TIME_ROLE ( 'creation_date' ) ;
#45 = PERSON ( 'UNSPECIFIED', 'UNSPECIFIED', 'UNSPECIFIED', ('UNSPECIFIED'), ('UNSPECIFIED'), ('UNSPECIFIED') ) ;
#46 = EDGE_LOOP ( 'NONE', ( #60 ) ) ;
#47 = CIRCLE ( 'NONE', #15, 0.9500000000000000666 ) ;
#48 = ORIENTED_EDGE ( 'NONE', *, *, #190, .T. ) ;
#49 = CC_DESIGN_SECURITY_CLASSIFICATION ( #146, ( #43 ) ) ;
#50 = PRODUCT_DEFINITION_SHAPE ( 'NONE', 'NONE',  #200 ) ;
#51 = DIRECTION ( 'NONE',  ( -3.491481338843133355E-15, 1.224646799147353207E-16, -1.000000000000000000 ) ) ;
#52 = ADVANCED_FACE ( 'NONE', ( #110 ), #176, .F. ) ;
#53 = DIRECTION ( 'NONE',  ( 4.275831445896959482E-31, 1.000000000000000000, 1.224646799147353207E-16 ) ) ;
#54 = DIRECTION ( 'NONE',  ( -4.275831445896958607E-31, -1.000000000000000000, -1.224646799147353207E-16 ) ) ;
#55 = CARTESIAN_POINT ( 'NONE',  ( 1.106799584413273211E-13, 1.249999999999996225, 31.69999999999999929 ) ) ;
#56 = COORDINATED_UNIVERSAL_TIME_OFFSET ( 1, 0, .AHEAD. ) ;
#57 = EDGE_CURVE ( 'NONE', #197, #197, #47, .T. ) ;
#58 = PERSON_AND_ORGANIZATION ( #45, #170 ) ;
#59 = APPROVAL_ROLE ( '' ) ;
#60 = ORIENTED_EDGE ( 'NONE', *, *, #57, .F. ) ;
#61 = EDGE_LOOP ( 'NONE', ( #79 ) ) ;
#62 = CLOSED_SHELL ( 'NONE', ( #52, #134, #99 ) ) ;
#63 = PLANE ( 'NONE',  #102 ) ;
#64 = CYLINDRICAL_SURFACE ( 'NONE', #160, 1.249999999999996669 ) ;
#65 = DIRECTION ( 'NONE',  ( 3.491481338843133355E-15, -1.224646799147353207E-16, 1.000000000000000000 ) ) ;
#66 = APPROVAL_PERSON_ORGANIZATION ( #199, #78, #87 ) ;
#67 = VERTEX_POINT ( 'NONE', #5 ) ;
#68 = ADVANCED_BREP_SHAPE_REPRESENTATION ( '692', ( #31, #32, #189 ), #84 ) ;
#69 = FACE_BOUND ( 'NONE', #201, .T. ) ;
#70 = VERTEX_POINT ( 'NONE', #23 ) ;
#71 = ADVANCED_FACE ( 'NONE', ( #2, #69 ), #164, .T. ) ;
#72 = APPROVAL_STATUS ( 'not_yet_approved' ) ;
#73 = APPROVAL_DATE_TIME ( #30, #78 ) ;
#74 = APPROVAL_ROLE ( '' ) ;
#75 = MECHANICAL_CONTEXT ( 'NONE', #185, 'mechanical' ) ;
#76 = SECURITY_CLASSIFICATION_LEVEL ( 'unclassified' ) ;
#77 = LOCAL_TIME ( 9, 31, 34.00000000000000000, #41 ) ;
#78 = APPROVAL ( #72, 'UNSPECIFIED' ) ;
#79 = ORIENTED_EDGE ( 'NONE', *, *, #92, .F. ) ;
#80 = PRODUCT_RELATED_PRODUCT_CATEGORY ( 'detail', '', ( #128 ) ) ;
#81 = DIRECTION ( 'NONE',  ( 4.275831445896958607E-31, 1.000000000000000000, 1.224646799147353207E-16 ) ) ;
#82 = FACE_OUTER_BOUND ( 'NONE', #124, .T. ) ;
#83 = FACE_OUTER_BOUND ( 'NONE', #17, .T. ) ;
#84 =( GEOMETRIC_REPRESENTATION_CONTEXT ( 3 ) GLOBAL_UNCERTAINTY_ASSIGNED_CONTEXT ( ( #91 ) ) GLOBAL_UNIT_ASSIGNED_CONTEXT ( ( #148, #177, #18 ) ) REPRESENTATION_CONTEXT ( 'NONE', 'WORKASPACE' ) );
#85 = DIRECTION ( 'NONE',  ( 0.0000000000000000000, 1.000000000000000000, 0.0000000000000000000 ) ) ;
#86 = DIRECTION ( 'NONE',  ( -3.491481338843133355E-15, 1.224646799147353207E-16, -1.000000000000000000 ) ) ;
#87 = APPROVAL_ROLE ( '' ) ;
#88 = DATE_AND_TIME ( #89, #140 ) ;
#89 = CALENDAR_DATE ( 2021, 9, 11 ) ;
#90 = PERSON_AND_ORGANIZATION_ROLE ( 'classification_officer' ) ;
#91 = UNCERTAINTY_MEASURE_WITH_UNIT (LENGTH_MEASURE( 1.000000000000000082E-05 ), #148, 'distance_accuracy_value', 'NONE');
#92 = EDGE_CURVE ( 'NONE', #111, #111, #26, .T. ) ;
#93 = ORIENTED_EDGE ( 'NONE', *, *, #19, .F. ) ;
#94 = ORIENTED_EDGE ( 'NONE', *, *, #13, .F. ) ;
#95 = ORIENTED_EDGE ( 'NONE', *, *, #13, .T. ) ;
#96 = CIRCLE ( 'NONE', #151, 1.249999999999997113 ) ;
#97 = DIRECTION ( 'NONE',  ( 3.491481338843133355E-15, -1.224646799147353207E-16, 1.000000000000000000 ) ) ;
#98 = DIRECTION ( 'NONE',  ( 3.491481338843133355E-15, -1.224646799147353207E-16, 1.000000000000000000 ) ) ;
#99 = ADVANCED_FACE ( 'NONE', ( #127 ), #180, .T. ) ;
#100 = CARTESIAN_POINT ( 'NONE',  ( 1.106799584413273211E-13, -3.882130353297110192E-15, 31.69999999999999929 ) ) ;
#101 = DATE_AND_TIME ( #27, #126 ) ;
#102 = AXIS2_PLACEMENT_3D ( 'NONE', #192, #51, #81 ) ;
#103 = COORDINATED_UNIVERSAL_TIME_OFFSET ( 1, 0, .AHEAD. ) ;
#104 = DIRECTION ( 'NONE',  ( 0.0000000000000000000, 0.0000000000000000000, 1.000000000000000000 ) ) ;
#105 = LOCAL_TIME ( 9, 31, 34.00000000000000000, #56 ) ;
#106 = CC_DESIGN_PERSON_AND_ORGANIZATION_ASSIGNMENT ( #12, #136, ( #43 ) ) ;
#107 = DIRECTION ( 'NONE',  ( -3.491481338843133355E-15, 1.224646799147353207E-16, -1.000000000000000000 ) ) ;
#108 = CIRCLE ( 'NONE', #178, 1.249999999999996225 ) ;
#109 = EDGE_LOOP ( 'NONE', ( #94 ) ) ;
#110 = FACE_OUTER_BOUND ( 'NONE', #157, .T. ) ;
#111 = VERTEX_POINT ( 'NONE', #55 ) ;
#112 = CC_DESIGN_PERSON_AND_ORGANIZATION_ASSIGNMENT ( #186, #188, ( #200 ) ) ;
#113 = CYLINDRICAL_SURFACE ( 'NONE', #119, 1.249999999999998446 ) ;
#114 = DIRECTION ( 'NONE',  ( -3.491481338843133355E-15, 1.224646799147353207E-16, -1.000000000000000000 ) ) ;
#115 = APPROVAL_PERSON_ORGANIZATION ( #156, #24, #59 ) ;
#116 = DIRECTION ( 'NONE',  ( -4.275831445896958607E-31, -1.000000000000000000, -1.224646799147353207E-16 ) ) ;
#117 = PERSON_AND_ORGANIZATION ( #45, #170 ) ;
#118 = PERSON_AND_ORGANIZATION ( #45, #170 ) ;
#119 = AXIS2_PLACEMENT_3D ( 'NONE', #6, #21, #53 ) ;
#120 = CC_DESIGN_APPROVAL ( #24, ( #146 ) ) ;
#121 = EDGE_LOOP ( 'NONE', ( #123 ) ) ;
#122 = APPLICATION_CONTEXT ( 'configuration controlled 3d designs of mechanical parts and assemblies' ) ;
#123 = ORIENTED_EDGE ( 'NONE', *, *, #190, .F. ) ;
#124 = EDGE_LOOP ( 'NONE', ( #202 ) ) ;
#125 = ORIENTED_EDGE ( 'NONE', *, *, #19, .T. ) ;
#126 = LOCAL_TIME ( 9, 31, 34.00000000000000000, #103 ) ;
#127 = FACE_OUTER_BOUND ( 'NONE', #159, .T. ) ;
#128 = PRODUCT ( '692', '692', '', ( #75 ) ) ;
#129 = CARTESIAN_POINT ( 'NONE',  ( 2.793185071074506684E-14, 9.373498641636573101E-33, 8.000000000000000000 ) ) ;
#130 = DIRECTION ( 'NONE',  ( -4.275831445896958607E-31, -1.000000000000000000, -1.224646799147353207E-16 ) ) ;
#131 = FACE_OUTER_BOUND ( 'NONE', #121, .T. ) ;
#132 = CALENDAR_DATE ( 2021, 9, 11 ) ;
#133 = APPROVAL_STATUS ( 'not_yet_approved' ) ;
#134 = ADVANCED_FACE ( 'NONE', ( #131, #35 ), #64, .T. ) ;
#135 = CLOSED_SHELL ( 'NONE', ( #175, #184, #71, #37 ) ) ;
#136 = PERSON_AND_ORGANIZATION_ROLE ( 'creator' ) ;
#137 = APPROVAL_STATUS ( 'not_yet_approved' ) ;
#138 = AXIS2_PLACEMENT_3D ( 'NONE', #100, #114, #166 ) ;
#139 = DIRECTION ( 'NONE',  ( 0.0000000000000000000, 1.000000000000000000, 0.0000000000000000000 ) ) ;
#140 = LOCAL_TIME ( 9, 31, 34.00000000000000000, #28 ) ;
#141 = CIRCLE ( 'NONE', #36, 1.249999999999997113 ) ;
#142 = EDGE_LOOP ( 'NONE', ( #125 ) ) ;
#143 = CC_DESIGN_DATE_AND_TIME_ASSIGNMENT ( #101, #44, ( #200 ) ) ;
#144 = CARTESIAN_POINT ( 'NONE',  ( -2.137867757404164632E-31, 7.498630672827344379E-33, -6.123096616957789580E-17 ) ) ;
#145 = AXIS2_PLACEMENT_3D ( 'NONE', #144, #65, #130 ) ;
#146 = SECURITY_CLASSIFICATION ( '', '', #76 ) ;
#147 = DIRECTION ( 'NONE',  ( -3.491481338843133355E-15, 1.224646799147353207E-16, -1.000000000000000000 ) ) ;
#148 =( LENGTH_UNIT ( ) NAMED_UNIT ( * ) SI_UNIT ( .MILLI., .METRE. ) );
#149 = CARTESIAN_POINT ( 'NONE',  ( 1.117274028429802674E-13, -3.918869757271530263E-15, 32.00000000000000000 ) ) ;
#150 = CARTESIAN_POINT ( 'NONE',  ( 0.0000000000000000000, 0.0000000000000000000, 0.0000000000000000000 ) ) ;
#151 = AXIS2_PLACEMENT_3D ( 'NONE', #174, #33, #139 ) ;
#152 = CC_DESIGN_PERSON_AND_ORGANIZATION_ASSIGNMENT ( #117, #198, ( #128 ) ) ;
#153 = CALENDAR_DATE ( 2021, 9, 11 ) ;
#154 = DATE_TIME_ROLE ( 'classification_date' ) ;
#155 = APPROVAL_DATE_TIME ( #8, #168 ) ;
#156 = PERSON_AND_ORGANIZATION ( #45, #170 ) ;
#157 = EDGE_LOOP ( 'NONE', ( #48 ) ) ;
#158 = CARTESIAN_POINT ( 'NONE',  ( 2.793185071074506684E-14, -9.797174393178825657E-16, 8.000000000000000000 ) ) ;
#159 = EDGE_LOOP ( 'NONE', ( #93 ) ) ;
#160 = AXIS2_PLACEMENT_3D ( 'NONE', #39, #163, #38 ) ;
#161 = CARTESIAN_POINT ( 'NONE',  ( 1.069053792562853011E-31, 1.249999999999996225, 3.061891755426287241E-17 ) ) ;
#162 = CARTESIAN_POINT ( 'NONE',  ( 1.117274028429802674E-13, -3.918869757271530263E-15, 32.00000000000000000 ) ) ;
#163 = DIRECTION ( 'NONE',  ( -3.491481338843133355E-15, 1.224646799147353207E-16, -1.000000000000000000 ) ) ;
#164 = CONICAL_SURFACE ( 'NONE', #191, 0.9500000000000000666, 0.7853981633974453924 ) ;
#165 = CARTESIAN_POINT ( 'NONE',  ( -4.275735514808329264E-31, 1.499726134565468876E-32, -1.224619323391557916E-16 ) ) ;
#166 = DIRECTION ( 'NONE',  ( 0.0000000000000000000, 1.000000000000000000, 0.0000000000000000000 ) ) ;
#167 = APPROVAL_DATE_TIME ( #183, #24 ) ;
#168 = APPROVAL ( #133, 'UNSPECIFIED' ) ;
#169 = PERSON_AND_ORGANIZATION ( #45, #170 ) ;
#170 = ORGANIZATION ( 'UNSPECIFIED', 'UNSPECIFIED', '' ) ;
#171 = PERSON_AND_ORGANIZATION_ROLE ( 'design_supplier' ) ;
#172 = SHAPE_DEFINITION_REPRESENTATION ( #50, #68 ) ;
#173 = COORDINATED_UNIVERSAL_TIME_OFFSET ( 1, 0, .AHEAD. ) ;
#174 = CARTESIAN_POINT ( 'NONE',  ( 2.793185071074506684E-14, -9.797174393178825657E-16, 8.000000000000000000 ) ) ;
#175 = ADVANCED_FACE ( 'NONE', ( #83 ), #194, .F. ) ;
#176 = PLANE ( 'NONE',  #145 ) ;
#177 =( NAMED_UNIT ( * ) PLANE_ANGLE_UNIT ( ) SI_UNIT ( $, .RADIAN. ) );
#178 = AXIS2_PLACEMENT_3D ( 'NONE', #165, #147, #7 ) ;
#179 = APPLICATION_PROTOCOL_DEFINITION ( 'international standard', 'config_control_design', 1994, #185 ) ;
#180 = PLANE ( 'NONE',  #11 ) ;
#181 = FACE_OUTER_BOUND ( 'NONE', #109, .T. ) ;
#182 = AXIS2_PLACEMENT_3D ( 'NONE', #129, #97, #54 ) ;
#183 = DATE_AND_TIME ( #9, #105 ) ;
#184 = ADVANCED_FACE ( 'NONE', ( #181, #82 ), #113, .T. ) ;
#185 = APPLICATION_CONTEXT ( 'configuration controlled 3d designs of mechanical parts and assemblies' ) ;
#186 = PERSON_AND_ORGANIZATION ( #45, #170 ) ;
#187 = LOCAL_TIME ( 9, 31, 34.00000000000000000, #173 ) ;
#188 = PERSON_AND_ORGANIZATION_ROLE ( 'creator' ) ;
#189 = AXIS2_PLACEMENT_3D ( 'NONE', #150, #104, #10 ) ;
#190 = EDGE_CURVE ( 'NONE', #40, #40, #108, .T. ) ;
#191 = AXIS2_PLACEMENT_3D ( 'NONE', #162, #86, #1 ) ;
#192 = CARTESIAN_POINT ( 'NONE',  ( 1.117274028429802674E-13, 7.123858967643766162E-33, 32.00000000000000000 ) ) ;
#193 = CC_DESIGN_APPROVAL ( #168, ( #200 ) ) ;
#194 = PLANE ( 'NONE',  #182 ) ;
#195 = CARTESIAN_POINT ( 'NONE',  ( 1.117274028429802674E-13, 0.9499999999999961808, 32.00000000000000000 ) ) ;
#196 = CC_DESIGN_DATE_AND_TIME_ASSIGNMENT ( #88, #154, ( #146 ) ) ;
#197 = VERTEX_POINT ( 'NONE', #195 ) ;
#198 = PERSON_AND_ORGANIZATION_ROLE ( 'design_owner' ) ;
#199 = PERSON_AND_ORGANIZATION ( #45, #170 ) ;
#200 = PRODUCT_DEFINITION ( 'UNKNOWN', '', #43, #14 ) ;
#201 = EDGE_LOOP ( 'NONE', ( #34 ) ) ;
#202 = ORIENTED_EDGE ( 'NONE', *, *, #92, .T. ) ;
#203 = FACE_OUTER_BOUND ( 'NONE', #46, .T. ) ;
ENDSEC;
END-ISO-10303-21;
