ISO-10303-21;
HEADER;
FILE_DESCRIPTION (( 'STEP AP203' ),
    '1' );
FILE_NAME ('691.step',
    '2021-11-09T08:31:33',
    ( '' ),
    ( '' ),
    'SwSTEP 2.0',
    'SolidWorks 2019',
    '' );
FILE_SCHEMA (( 'CONFIG_CONTROL_DESIGN' ));
ENDSEC;

DATA;
#1 = COORDINATED_UNIVERSAL_TIME_OFFSET ( 1, 0, .AHEAD. ) ;
#2 = APPLICATION_CONTEXT ( 'configuration controlled 3d designs of mechanical parts and assemblies' ) ;
#3 = CALENDAR_DATE ( 2021, 9, 11 ) ;
#4 = DIRECTION ( 'NONE',  ( -3.491481338843133355E-15, 1.224646799147353207E-16, -1.000000000000000000 ) ) ;
#5 = AXIS2_PLACEMENT_3D ( 'NONE', #50, #190, #166 ) ;
#6 = CARTESIAN_POINT ( 'NONE',  ( 1.106799584413273211E-13, -3.882130353297110192E-15, 31.69999999999999929 ) ) ;
#7 = DATE_TIME_ROLE ( 'classification_date' ) ;
#8 = PERSON_AND_ORGANIZATION_ROLE ( 'design_supplier' ) ;
#9 = PLANE ( 'NONE',  #113 ) ;
#10 = LOCAL_TIME ( 9, 31, 33.00000000000000000, #1 ) ;
#11 = DIRECTION ( 'NONE',  ( -3.491481338843133355E-15, 1.224646799147353207E-16, -1.000000000000000000 ) ) ;
#12 = CARTESIAN_POINT ( 'NONE',  ( 2.793185071074506684E-14, 0.9999999999999917843, 8.000000000000000000 ) ) ;
#13 = APPROVAL ( #146, 'UNSPECIFIED' ) ;
#14 = FACE_OUTER_BOUND ( 'NONE', #20, .T. ) ;
#15 = APPROVAL_ROLE ( '' ) ;
#16 = PRODUCT_DEFINITION_SHAPE ( 'NONE', 'NONE',  #203 ) ;
#17 = ORIENTED_EDGE ( 'NONE', *, *, #111, .T. ) ;
#18 = DIRECTION ( 'NONE',  ( 3.491481338843133355E-15, -1.224646799147353207E-16, 1.000000000000000000 ) ) ;
#19 = AXIS2_PLACEMENT_3D ( 'NONE', #194, #18, #68 ) ;
#20 = EDGE_LOOP ( 'NONE', ( #123 ) ) ;
#21 = CIRCLE ( 'NONE', #112, 0.9999999999999917843 ) ;
#22 = EDGE_LOOP ( 'NONE', ( #84 ) ) ;
#23 = CC_DESIGN_PERSON_AND_ORGANIZATION_ASSIGNMENT ( #196, #43, ( #128 ) ) ;
#24 = DATE_AND_TIME ( #57, #174 ) ;
#25 = AXIS2_PLACEMENT_3D ( 'NONE', #133, #130, #198 ) ;
#26 = DIRECTION ( 'NONE',  ( -3.491481338843133355E-15, 1.224646799147353207E-16, -1.000000000000000000 ) ) ;
#27 = DIRECTION ( 'NONE',  ( -3.491481338843133355E-15, 1.224646799147353207E-16, -1.000000000000000000 ) ) ;
#28 = EDGE_CURVE ( 'NONE', #119, #119, #96, .T. ) ;
#29 = MANIFOLD_SOLID_BREP ( 'Corps-Déplacer/Copier1[2]', #185 ) ;
#30 = APPROVAL_DATE_TIME ( #32, #115 ) ;
#31 = EDGE_CURVE ( 'NONE', #122, #122, #173, .T. ) ;
#32 = DATE_AND_TIME ( #136, #61 ) ;
#33 = CC_DESIGN_APPROVAL ( #13, ( #131 ) ) ;
#34 = EDGE_LOOP ( 'NONE', ( #40 ) ) ;
#35 = PERSON_AND_ORGANIZATION ( #186, #142 ) ;
#36 = DIRECTION ( 'NONE',  ( -4.275831445896958607E-31, -1.000000000000000000, -1.224646799147353207E-16 ) ) ;
#37 = CARTESIAN_POINT ( 'NONE',  ( 2.793185071074506684E-14, 0.9999999999999917843, 8.000000000000000000 ) ) ;
#38 = EDGE_LOOP ( 'NONE', ( #76 ) ) ;
#39 = APPROVAL_DATE_TIME ( #24, #73 ) ;
#40 = ORIENTED_EDGE ( 'NONE', *, *, #89, .F. ) ;
#41 = DATE_AND_TIME ( #170, #172 ) ;
#42 = CYLINDRICAL_SURFACE ( 'NONE', #25, 0.9999999999999922284 ) ;
#43 = PERSON_AND_ORGANIZATION_ROLE ( 'classification_officer' ) ;
#44 = CC_DESIGN_PERSON_AND_ORGANIZATION_ASSIGNMENT ( #35, #65, ( #97 ) ) ;
#45 = COORDINATED_UNIVERSAL_TIME_OFFSET ( 1, 0, .AHEAD. ) ;
#46 = DIRECTION ( 'NONE',  ( -3.491481338843133355E-15, 1.224646799147353207E-16, -1.000000000000000000 ) ) ;
#47 = VERTEX_POINT ( 'NONE', #69 ) ;
#48 = ADVANCED_BREP_SHAPE_REPRESENTATION ( '691', ( #106, #29, #5 ), #95 ) ;
#49 = DIRECTION ( 'NONE',  ( 0.0000000000000000000, 1.000000000000000000, 0.0000000000000000000 ) ) ;
#50 = CARTESIAN_POINT ( 'NONE',  ( 0.0000000000000000000, 0.0000000000000000000, 0.0000000000000000000 ) ) ;
#51 = ORIENTED_EDGE ( 'NONE', *, *, #31, .T. ) ;
#52 = DIRECTION ( 'NONE',  ( 0.0000000000000000000, 1.000000000000000000, 0.0000000000000000000 ) ) ;
#53 = PLANE ( 'NONE',  #117 ) ;
#54 = APPLICATION_PROTOCOL_DEFINITION ( 'international standard', 'config_control_design', 1994, #2 ) ;
#55 = PERSON_AND_ORGANIZATION ( #186, #142 ) ;
#56 = PRODUCT_RELATED_PRODUCT_CATEGORY ( 'detail', '', ( #97 ) ) ;
#57 = CALENDAR_DATE ( 2021, 9, 11 ) ;
#58 = PERSON_AND_ORGANIZATION_ROLE ( 'creator' ) ;
#59 = CARTESIAN_POINT ( 'NONE',  ( 2.793185071074506684E-14, 7.498798913309219616E-33, 8.000000000000000000 ) ) ;
#60 = FACE_OUTER_BOUND ( 'NONE', #182, .T. ) ;
#61 = LOCAL_TIME ( 9, 31, 33.00000000000000000, #45 ) ;
#62 = CONICAL_SURFACE ( 'NONE', #201, 0.6999999999999961808, 0.7853981633974447263 ) ;
#63 = CC_DESIGN_DATE_AND_TIME_ASSIGNMENT ( #80, #100, ( #203 ) ) ;
#64 = ADVANCED_FACE ( 'NONE', ( #180 ), #165, .T. ) ;
#65 = PERSON_AND_ORGANIZATION_ROLE ( 'design_owner' ) ;
#66 = CARTESIAN_POINT ( 'NONE',  ( 0.0000000000000000000, 0.0000000000000000000, 0.0000000000000000000 ) ) ;
#67 = APPROVAL_PERSON_ORGANIZATION ( #161, #13, #15 ) ;
#68 = DIRECTION ( 'NONE',  ( -4.275831445896958607E-31, -1.000000000000000000, -1.224646799147353207E-16 ) ) ;
#69 = CARTESIAN_POINT ( 'NONE',  ( -1.496536681475709573E-30, 0.9999999999999917843, -4.286251410902776685E-16 ) ) ;
#70 = DIRECTION ( 'NONE',  ( 0.0000000000000000000, 1.000000000000000000, 0.0000000000000000000 ) ) ;
#71 = CARTESIAN_POINT ( 'NONE',  ( 1.117274028429802674E-13, -3.918869757271530263E-15, 32.00000000000000000 ) ) ;
#72 = SHAPE_DEFINITION_REPRESENTATION ( #16, #48 ) ;
#73 = APPROVAL ( #126, 'UNSPECIFIED' ) ;
#74 = ADVANCED_FACE ( 'NONE', ( #163, #149 ), #62, .T. ) ;
#75 = ADVANCED_FACE ( 'NONE', ( #138 ), #53, .F. ) ;
#76 = ORIENTED_EDGE ( 'NONE', *, *, #111, .F. ) ;
#77 = DATE_AND_TIME ( #3, #184 ) ;
#78 = DIRECTION ( 'NONE',  ( 3.491481338843133355E-15, -1.224646799147353207E-16, 1.000000000000000000 ) ) ;
#79 = DIRECTION ( 'NONE',  ( 4.275831445896959482E-31, 1.000000000000000000, 1.224646799147353207E-16 ) ) ;
#80 = DATE_AND_TIME ( #175, #10 ) ;
#81 = APPROVAL_PERSON_ORGANIZATION ( #187, #115, #82 ) ;
#82 = APPROVAL_ROLE ( '' ) ;
#83 = COORDINATED_UNIVERSAL_TIME_OFFSET ( 1, 0, .AHEAD. ) ;
#84 = ORIENTED_EDGE ( 'NONE', *, *, #183, .F. ) ;
#85 = PLANE ( 'NONE',  #19 ) ;
#86 = DIRECTION ( 'NONE',  ( 0.0000000000000000000, 1.000000000000000000, 0.0000000000000000000 ) ) ;
#87 =( LENGTH_UNIT ( ) NAMED_UNIT ( * ) SI_UNIT ( .MILLI., .METRE. ) );
#88 = CC_DESIGN_APPROVAL ( #73, ( #128 ) ) ;
#89 = EDGE_CURVE ( 'NONE', #47, #47, #21, .T. ) ;
#90 = EDGE_LOOP ( 'NONE', ( #169 ) ) ;
#91 = PERSON_AND_ORGANIZATION ( #186, #142 ) ;
#92 = CLOSED_SHELL ( 'NONE', ( #168, #144, #74, #75 ) ) ;
#93 = EDGE_LOOP ( 'NONE', ( #51 ) ) ;
#94 = SECURITY_CLASSIFICATION_LEVEL ( 'unclassified' ) ;
#95 =( GEOMETRIC_REPRESENTATION_CONTEXT ( 3 ) GLOBAL_UNCERTAINTY_ASSIGNED_CONTEXT ( ( #98 ) ) GLOBAL_UNIT_ASSIGNED_CONTEXT ( ( #87, #164, #192 ) ) REPRESENTATION_CONTEXT ( 'NONE', 'WORKASPACE' ) );
#96 = CIRCLE ( 'NONE', #147, 0.9999999999999928946 ) ;
#97 = PRODUCT ( '691', '691', '', ( #101 ) ) ;
#98 = UNCERTAINTY_MEASURE_WITH_UNIT (LENGTH_MEASURE( 1.000000000000000082E-05 ), #87, 'distance_accuracy_value', 'NONE');
#99 = CARTESIAN_POINT ( 'NONE',  ( 1.106799584413273211E-13, 0.9999999999999917843, 31.69999999999999929 ) ) ;
#100 = DATE_TIME_ROLE ( 'creation_date' ) ;
#101 = MECHANICAL_CONTEXT ( 'NONE', #156, 'mechanical' ) ;
#102 = DIRECTION ( 'NONE',  ( 0.0000000000000000000, 1.000000000000000000, 0.0000000000000000000 ) ) ;
#103 = AXIS2_PLACEMENT_3D ( 'NONE', #193, #125, #36 ) ;
#104 = CARTESIAN_POINT ( 'NONE',  ( 1.117274028429802674E-13, 5.249159239316414730E-33, 32.00000000000000000 ) ) ;
#105 = CIRCLE ( 'NONE', #177, 0.6999999999999961808 ) ;
#106 = MANIFOLD_SOLID_BREP ( 'Corps-Déplacer/Copier1[1]', #92 ) ;
#107 = COORDINATED_UNIVERSAL_TIME_OFFSET ( 1, 0, .AHEAD. ) ;
#108 = APPROVAL_DATE_TIME ( #77, #13 ) ;
#109 = PERSON_AND_ORGANIZATION ( #186, #142 ) ;
#110 = AXIS2_PLACEMENT_3D ( 'NONE', #66, #46, #79 ) ;
#111 = EDGE_CURVE ( 'NONE', #181, #181, #139, .T. ) ;
#112 = AXIS2_PLACEMENT_3D ( 'NONE', #137, #27, #135 ) ;
#113 = AXIS2_PLACEMENT_3D ( 'NONE', #59, #78, #160 ) ;
#114 = PERSON_AND_ORGANIZATION ( #186, #142 ) ;
#115 = APPROVAL ( #162, 'UNSPECIFIED' ) ;
#116 = DIRECTION ( 'NONE',  ( 4.275831445896958607E-31, 1.000000000000000000, 1.224646799147353207E-16 ) ) ;
#117 = AXIS2_PLACEMENT_3D ( 'NONE', #104, #26, #116 ) ;
#118 = DIRECTION ( 'NONE',  ( -3.491481338843133355E-15, 1.224646799147353207E-16, -1.000000000000000000 ) ) ;
#119 = VERTEX_POINT ( 'NONE', #12 ) ;
#120 = DIRECTION ( 'NONE',  ( -3.491481338843133355E-15, 1.224646799147353207E-16, -1.000000000000000000 ) ) ;
#121 = CC_DESIGN_APPROVAL ( #115, ( #203 ) ) ;
#122 = VERTEX_POINT ( 'NONE', #99 ) ;
#123 = ORIENTED_EDGE ( 'NONE', *, *, #89, .T. ) ;
#124 = CARTESIAN_POINT ( 'NONE',  ( 1.117274028429802674E-13, -3.918869757271530263E-15, 32.00000000000000000 ) ) ;
#125 = DIRECTION ( 'NONE',  ( 3.491481338843133355E-15, -1.224646799147353207E-16, 1.000000000000000000 ) ) ;
#126 = APPROVAL_STATUS ( 'not_yet_approved' ) ;
#127 = CARTESIAN_POINT ( 'NONE',  ( 2.793185071074506684E-14, -9.797174393178825657E-16, 8.000000000000000000 ) ) ;
#128 = SECURITY_CLASSIFICATION ( '', '', #94 ) ;
#129 = CC_DESIGN_DATE_AND_TIME_ASSIGNMENT ( #41, #7, ( #128 ) ) ;
#130 = DIRECTION ( 'NONE',  ( -3.491481338843133355E-15, 1.224646799147353207E-16, -1.000000000000000000 ) ) ;
#131 = PRODUCT_DEFINITION_FORMATION_WITH_SPECIFIED_SOURCE ( 'ANY', '', #97, .NOT_KNOWN. ) ;
#132 = FACE_OUTER_BOUND ( 'NONE', #34, .T. ) ;
#133 = CARTESIAN_POINT ( 'NONE',  ( 0.0000000000000000000, 0.0000000000000000000, 0.0000000000000000000 ) ) ;
#134 = DESIGN_CONTEXT ( 'detailed design', #2, 'design' ) ;
#135 = DIRECTION ( 'NONE',  ( 4.275831445896957731E-31, 1.000000000000000000, 1.224646799147352961E-16 ) ) ;
#136 = CALENDAR_DATE ( 2021, 9, 11 ) ;
#137 = CARTESIAN_POINT ( 'NONE',  ( -1.924119826065401755E-30, 6.748903853364757894E-32, -5.510898210050119291E-16 ) ) ;
#138 = FACE_OUTER_BOUND ( 'NONE', #22, .T. ) ;
#139 = CIRCLE ( 'NONE', #179, 0.9999999999999928946 ) ;
#140 = EDGE_LOOP ( 'NONE', ( #154 ) ) ;
#141 = COORDINATED_UNIVERSAL_TIME_OFFSET ( 1, 0, .AHEAD. ) ;
#142 = ORGANIZATION ( 'UNSPECIFIED', 'UNSPECIFIED', '' ) ;
#143 = FACE_OUTER_BOUND ( 'NONE', #38, .T. ) ;
#144 = ADVANCED_FACE ( 'NONE', ( #143, #159 ), #145, .T. ) ;
#145 = CYLINDRICAL_SURFACE ( 'NONE', #110, 0.9999999999999943379 ) ;
#146 = APPROVAL_STATUS ( 'not_yet_approved' ) ;
#147 = AXIS2_PLACEMENT_3D ( 'NONE', #127, #120, #86 ) ;
#148 = PERSON_AND_ORGANIZATION_ROLE ( 'creator' ) ;
#149 = FACE_BOUND ( 'NONE', #152, .T. ) ;
#150 = CARTESIAN_POINT ( 'NONE',  ( 1.117274028429802674E-13, 0.6999999999999922951, 32.00000000000000000 ) ) ;
#151 = APPROVAL_PERSON_ORGANIZATION ( #109, #73, #171 ) ;
#152 = EDGE_LOOP ( 'NONE', ( #191 ) ) ;
#153 = AXIS2_PLACEMENT_3D ( 'NONE', #6, #178, #102 ) ;
#154 = ORIENTED_EDGE ( 'NONE', *, *, #28, .F. ) ;
#155 = CC_DESIGN_PERSON_AND_ORGANIZATION_ASSIGNMENT ( #91, #58, ( #131 ) ) ;
#156 = APPLICATION_CONTEXT ( 'configuration controlled 3d designs of mechanical parts and assemblies' ) ;
#157 = ADVANCED_FACE ( 'NONE', ( #132, #200 ), #42, .T. ) ;
#158 = CARTESIAN_POINT ( 'NONE',  ( 2.793185071074506684E-14, -9.797174393178825657E-16, 8.000000000000000000 ) ) ;
#159 = FACE_OUTER_BOUND ( 'NONE', #93, .T. ) ;
#160 = DIRECTION ( 'NONE',  ( -4.275831445896958607E-31, -1.000000000000000000, -1.224646799147353207E-16 ) ) ;
#161 = PERSON_AND_ORGANIZATION ( #186, #142 ) ;
#162 = APPROVAL_STATUS ( 'not_yet_approved' ) ;
#163 = FACE_OUTER_BOUND ( 'NONE', #197, .T. ) ;
#164 =( NAMED_UNIT ( * ) PLANE_ANGLE_UNIT ( ) SI_UNIT ( $, .RADIAN. ) );
#165 = PLANE ( 'NONE',  #103 ) ;
#166 = DIRECTION ( 'NONE',  ( 1.000000000000000000, 0.0000000000000000000, 0.0000000000000000000 ) ) ;
#167 = CC_DESIGN_PERSON_AND_ORGANIZATION_ASSIGNMENT ( #114, #148, ( #203 ) ) ;
#168 = ADVANCED_FACE ( 'NONE', ( #60 ), #9, .F. ) ;
#169 = ORIENTED_EDGE ( 'NONE', *, *, #28, .T. ) ;
#170 = CALENDAR_DATE ( 2021, 9, 11 ) ;
#171 = APPROVAL_ROLE ( '' ) ;
#172 = LOCAL_TIME ( 9, 31, 33.00000000000000000, #141 ) ;
#173 = CIRCLE ( 'NONE', #153, 0.9999999999999956701 ) ;
#174 = LOCAL_TIME ( 9, 31, 33.00000000000000000, #107 ) ;
#175 = CALENDAR_DATE ( 2021, 9, 11 ) ;
#176 = APPLICATION_PROTOCOL_DEFINITION ( 'international standard', 'config_control_design', 1994, #156 ) ;
#177 = AXIS2_PLACEMENT_3D ( 'NONE', #124, #118, #52 ) ;
#178 = DIRECTION ( 'NONE',  ( -3.491481338843133355E-15, 1.224646799147353207E-16, -1.000000000000000000 ) ) ;
#179 = AXIS2_PLACEMENT_3D ( 'NONE', #158, #11, #49 ) ;
#180 = FACE_OUTER_BOUND ( 'NONE', #140, .T. ) ;
#181 = VERTEX_POINT ( 'NONE', #37 ) ;
#182 = EDGE_LOOP ( 'NONE', ( #17 ) ) ;
#183 = EDGE_CURVE ( 'NONE', #202, #202, #105, .T. ) ;
#184 = LOCAL_TIME ( 9, 31, 33.00000000000000000, #83 ) ;
#185 = CLOSED_SHELL ( 'NONE', ( #189, #157, #64 ) ) ;
#186 = PERSON ( 'UNSPECIFIED', 'UNSPECIFIED', 'UNSPECIFIED', ('UNSPECIFIED'), ('UNSPECIFIED'), ('UNSPECIFIED') ) ;
#187 = PERSON_AND_ORGANIZATION ( #186, #142 ) ;
#188 = CC_DESIGN_PERSON_AND_ORGANIZATION_ASSIGNMENT ( #55, #8, ( #131 ) ) ;
#189 = ADVANCED_FACE ( 'NONE', ( #14 ), #85, .F. ) ;
#190 = DIRECTION ( 'NONE',  ( 0.0000000000000000000, 0.0000000000000000000, 1.000000000000000000 ) ) ;
#191 = ORIENTED_EDGE ( 'NONE', *, *, #183, .T. ) ;
#192 =( NAMED_UNIT ( * ) SI_UNIT ( $, .STERADIAN. ) SOLID_ANGLE_UNIT ( ) );
#193 = CARTESIAN_POINT ( 'NONE',  ( 2.793185071074506684E-14, 7.498798913309219616E-33, 8.000000000000000000 ) ) ;
#194 = CARTESIAN_POINT ( 'NONE',  ( -9.620599130327008777E-31, 3.374451926682378947E-32, -2.755449105025059646E-16 ) ) ;
#195 = ORIENTED_EDGE ( 'NONE', *, *, #31, .F. ) ;
#196 = PERSON_AND_ORGANIZATION ( #186, #142 ) ;
#197 = EDGE_LOOP ( 'NONE', ( #195 ) ) ;
#198 = DIRECTION ( 'NONE',  ( 4.275831445896958607E-31, 1.000000000000000000, 1.224646799147353454E-16 ) ) ;
#199 = CC_DESIGN_SECURITY_CLASSIFICATION ( #128, ( #131 ) ) ;
#200 = FACE_OUTER_BOUND ( 'NONE', #90, .T. ) ;
#201 = AXIS2_PLACEMENT_3D ( 'NONE', #71, #4, #70 ) ;
#202 = VERTEX_POINT ( 'NONE', #150 ) ;
#203 = PRODUCT_DEFINITION ( 'UNKNOWN', '', #131, #134 ) ;
ENDSEC;
END-ISO-10303-21;
