ISO-10303-21;
HEADER;
FILE_DESCRIPTION (( 'STEP AP203' ),
    '1' );
FILE_NAME ('690.step',
    '2021-11-09T08:31:33',
    ( '' ),
    ( '' ),
    'SwSTEP 2.0',
    'SolidWorks 2019',
    '' );
FILE_SCHEMA (( 'CONFIG_CONTROL_DESIGN' ));
ENDSEC;

DATA;
#1 = PLANE ( 'NONE',  #203 ) ;
#2 = PERSON ( 'UNSPECIFIED', 'UNSPECIFIED', 'UNSPECIFIED', ('UNSPECIFIED'), ('UNSPECIFIED'), ('UNSPECIFIED') ) ;
#3 = FACE_OUTER_BOUND ( 'NONE', #112, .T. ) ;
#4 = CC_DESIGN_PERSON_AND_ORGANIZATION_ASSIGNMENT ( #156, #24, ( #215 ) ) ;
#5 = DIRECTION ( 'NONE',  ( 0.0000000000000000000, -1.000000000000000000, 0.0000000000000000000 ) ) ;
#6 = DIRECTION ( 'NONE',  ( 4.275831445896958607E-31, 1.000000000000000000, 1.224646799147353207E-16 ) ) ;
#7 = CIRCLE ( 'NONE', #135, 0.9999999999999950040 ) ;
#8 =( NAMED_UNIT ( * ) SI_UNIT ( $, .STERADIAN. ) SOLID_ANGLE_UNIT ( ) );
#9 = DIRECTION ( 'NONE',  ( 3.491481338843133355E-15, -1.235943513693574240E-16, 1.000000000000000000 ) ) ;
#10 = CARTESIAN_POINT ( 'NONE',  ( -4.275743254511121536E-31, 0.0000000000000000000, -1.224621540130541035E-16 ) ) ;
#11 = ADVANCED_FACE ( 'NONE', ( #102 ), #1, .F. ) ;
#12 = PERSON_AND_ORGANIZATION ( #2, #141 ) ;
#13 = PERSON_AND_ORGANIZATION ( #2, #141 ) ;
#14 = DATE_AND_TIME ( #62, #15 ) ;
#15 = LOCAL_TIME ( 9, 31, 33.00000000000000000, #206 ) ;
#16 = CLOSED_SHELL ( 'NONE', ( #48, #213, #41 ) ) ;
#17 = AXIS2_PLACEMENT_3D ( 'NONE', #145, #55, #124 ) ;
#18 = EDGE_LOOP ( 'NONE', ( #106 ) ) ;
#19 = PRODUCT_RELATED_PRODUCT_CATEGORY ( 'detail', '', ( #199 ) ) ;
#20 = CARTESIAN_POINT ( 'NONE',  ( 2.094888803305879382E-14, -0.7499999999999917843, 5.999999999999998224 ) ) ;
#21 = DIRECTION ( 'NONE',  ( -3.491481338843133355E-15, 1.224646799147353207E-16, -1.000000000000000000 ) ) ;
#22 = CARTESIAN_POINT ( 'NONE',  ( 2.094888803305879382E-14, -7.415661082161443468E-16, 5.999999999999998224 ) ) ;
#23 = VERTEX_POINT ( 'NONE', #75 ) ;
#24 = PERSON_AND_ORGANIZATION_ROLE ( 'creator' ) ;
#25 = CC_DESIGN_PERSON_AND_ORGANIZATION_ASSIGNMENT ( #93, #113, ( #66 ) ) ;
#26 = DATE_AND_TIME ( #191, #73 ) ;
#27 = LOCAL_TIME ( 9, 31, 33.00000000000000000, #47 ) ;
#28 = AXIS2_PLACEMENT_3D ( 'NONE', #152, #200, #59 ) ;
#29 = ORIENTED_EDGE ( 'NONE', *, *, #155, .F. ) ;
#30 = EDGE_CURVE ( 'NONE', #133, #133, #177, .T. ) ;
#31 = ADVANCED_FACE ( 'NONE', ( #209, #168 ), #74, .T. ) ;
#32 = ORIENTED_EDGE ( 'NONE', *, *, #122, .T. ) ;
#33 = APPLICATION_PROTOCOL_DEFINITION ( 'international standard', 'config_control_design', 1994, #159 ) ;
#34 = CARTESIAN_POINT ( 'NONE',  ( 1.117274028429802674E-13, 5.249159239316414730E-33, 32.00000000000000000 ) ) ;
#35 = DIRECTION ( 'NONE',  ( -3.491481338843133355E-15, 1.224646799147353207E-16, -1.000000000000000000 ) ) ;
#36 = EDGE_LOOP ( 'NONE', ( #185 ) ) ;
#37 = DIRECTION ( 'NONE',  ( 3.491481338843133355E-15, -1.235943513693574240E-16, 1.000000000000000000 ) ) ;
#38 = VERTEX_POINT ( 'NONE', #70 ) ;
#39 = DIRECTION ( 'NONE',  ( 1.000000000000000000, 0.0000000000000000000, 0.0000000000000000000 ) ) ;
#40 = APPROVAL_ROLE ( '' ) ;
#41 = ADVANCED_FACE ( 'NONE', ( #163 ), #86, .F. ) ;
#42 = CALENDAR_DATE ( 2021, 9, 11 ) ;
#43 = TOROIDAL_SURFACE ( 'NONE', #71, 8.749999999999991118, 8.000000000000000000 ) ;
#44 = SHAPE_DEFINITION_REPRESENTATION ( #58, #202 ) ;
#45 = CC_DESIGN_APPROVAL ( #60, ( #66 ) ) ;
#46 = EDGE_LOOP ( 'NONE', ( #198 ) ) ;
#47 = COORDINATED_UNIVERSAL_TIME_OFFSET ( 1, 0, .AHEAD. ) ;
#48 = ADVANCED_FACE ( 'NONE', ( #147 ), #85, .T. ) ;
#49 = CARTESIAN_POINT ( 'NONE',  ( -9.620599130327008777E-31, 3.374451926682378947E-32, -2.755449105025059646E-16 ) ) ;
#50 = EDGE_LOOP ( 'NONE', ( #32 ) ) ;
#51 = ORIENTED_EDGE ( 'NONE', *, *, #119, .T. ) ;
#52 = CARTESIAN_POINT ( 'NONE',  ( 1.106799584413273211E-13, 0.9999999999999917843, 31.69999999999999929 ) ) ;
#53 = AXIS2_PLACEMENT_3D ( 'NONE', #10, #91, #153 ) ;
#54 = EDGE_LOOP ( 'NONE', ( #126 ) ) ;
#55 = DIRECTION ( 'NONE',  ( -3.491481338843133355E-15, 1.224646799147353207E-16, -1.000000000000000000 ) ) ;
#56 = DIRECTION ( 'NONE',  ( 0.0000000000000000000, -1.000000000000000000, 0.0000000000000000000 ) ) ;
#57 = DIRECTION ( 'NONE',  ( 3.491481338843133355E-15, -1.235943513693574240E-16, 1.000000000000000000 ) ) ;
#58 = PRODUCT_DEFINITION_SHAPE ( 'NONE', 'NONE',  #194 ) ;
#59 = DIRECTION ( 'NONE',  ( 0.0000000000000000000, 1.000000000000000000, 0.0000000000000000000 ) ) ;
#60 = APPROVAL ( #79, 'UNSPECIFIED' ) ;
#61 = COORDINATED_UNIVERSAL_TIME_OFFSET ( 1, 0, .AHEAD. ) ;
#62 = CALENDAR_DATE ( 2021, 9, 11 ) ;
#63 = CALENDAR_DATE ( 2021, 9, 11 ) ;
#64 =( GEOMETRIC_REPRESENTATION_CONTEXT ( 3 ) GLOBAL_UNCERTAINTY_ASSIGNED_CONTEXT ( ( #161 ) ) GLOBAL_UNIT_ASSIGNED_CONTEXT ( ( #89, #217, #8 ) ) REPRESENTATION_CONTEXT ( 'NONE', 'WORKASPACE' ) );
#65 = CC_DESIGN_PERSON_AND_ORGANIZATION_ASSIGNMENT ( #92, #77, ( #199 ) ) ;
#66 = SECURITY_CLASSIFICATION ( '', '', #81 ) ;
#67 = ORIENTED_EDGE ( 'NONE', *, *, #138, .F. ) ;
#68 = DIRECTION ( 'NONE',  ( 0.0000000000000000000, -1.000000000000000000, 0.0000000000000000000 ) ) ;
#69 = CARTESIAN_POINT ( 'NONE',  ( 2.094888803305879067E-14, 0.0000000000000000000, 5.999999999999997335 ) ) ;
#70 = CARTESIAN_POINT ( 'NONE',  ( 2.094888803305879382E-14, -0.7499999999999917843, 5.999999999999998224 ) ) ;
#71 = AXIS2_PLACEMENT_3D ( 'NONE', #69, #144, #210 ) ;
#72 = CARTESIAN_POINT ( 'NONE',  ( 2.787708153041017325E-14, -9.868160460978873551E-16, 7.984313483298454805 ) ) ;
#73 = LOCAL_TIME ( 9, 31, 33.00000000000000000, #61 ) ;
#74 = CYLINDRICAL_SURFACE ( 'NONE', #114, 0.9999999999999940048 ) ;
#75 = CARTESIAN_POINT ( 'NONE',  ( 1.117274028429802674E-13, 0.6999999999999922951, 32.00000000000000000 ) ) ;
#76 = CC_DESIGN_DATE_AND_TIME_ASSIGNMENT ( #26, #80, ( #194 ) ) ;
#77 = PERSON_AND_ORGANIZATION_ROLE ( 'design_owner' ) ;
#78 = DATE_AND_TIME ( #63, #82 ) ;
#79 = APPROVAL_STATUS ( 'not_yet_approved' ) ;
#80 = DATE_TIME_ROLE ( 'creation_date' ) ;
#81 = SECURITY_CLASSIFICATION_LEVEL ( 'unclassified' ) ;
#82 = LOCAL_TIME ( 9, 31, 33.00000000000000000, #118 ) ;
#83 = ADVANCED_FACE ( 'NONE', ( #142, #179 ), #43, .F. ) ;
#84 = AXIS2_PLACEMENT_3D ( 'NONE', #49, #123, #195 ) ;
#85 = PLANE ( 'NONE',  #146 ) ;
#86 = PLANE ( 'NONE',  #84 ) ;
#87 = VERTEX_POINT ( 'NONE', #109 ) ;
#88 = DIRECTION ( 'NONE',  ( -3.491481338843133355E-15, 1.224646799147353207E-16, -1.000000000000000000 ) ) ;
#89 =( LENGTH_UNIT ( ) NAMED_UNIT ( * ) SI_UNIT ( .MILLI., .METRE. ) );
#90 = CARTESIAN_POINT ( 'NONE',  ( 2.094888803305879382E-14, -7.415661082161443468E-16, 5.999999999999998224 ) ) ;
#91 = DIRECTION ( 'NONE',  ( 3.491481338843133355E-15, -1.235943513693574240E-16, 1.000000000000000000 ) ) ;
#92 = PERSON_AND_ORGANIZATION ( #2, #141 ) ;
#93 = PERSON_AND_ORGANIZATION ( #2, #141 ) ;
#94 = PERSON_AND_ORGANIZATION_ROLE ( 'design_supplier' ) ;
#95 = APPROVAL_DATE_TIME ( #192, #178 ) ;
#96 = CC_DESIGN_APPROVAL ( #178, ( #194 ) ) ;
#97 = ADVANCED_FACE ( 'NONE', ( #3 ), #197, .F. ) ;
#98 = AXIS2_PLACEMENT_3D ( 'NONE', #34, #21, #6 ) ;
#99 = DESIGN_CONTEXT ( 'detailed design', #159, 'design' ) ;
#100 = CC_DESIGN_SECURITY_CLASSIFICATION ( #66, ( #215 ) ) ;
#101 = DIRECTION ( 'NONE',  ( -4.275831445896958607E-31, -1.000000000000000000, -1.224646799147353207E-16 ) ) ;
#102 = FACE_OUTER_BOUND ( 'NONE', #214, .T. ) ;
#103 = DIRECTION ( 'NONE',  ( 0.0000000000000000000, 1.000000000000000000, 0.0000000000000000000 ) ) ;
#104 = APPLICATION_CONTEXT ( 'configuration controlled 3d designs of mechanical parts and assemblies' ) ;
#105 = CC_DESIGN_DATE_AND_TIME_ASSIGNMENT ( #137, #134, ( #66 ) ) ;
#106 = ORIENTED_EDGE ( 'NONE', *, *, #30, .T. ) ;
#107 = CYLINDRICAL_SURFACE ( 'NONE', #53, 0.7499999999999917843 ) ;
#108 = EDGE_LOOP ( 'NONE', ( #51 ) ) ;
#109 = CARTESIAN_POINT ( 'NONE',  ( 1.009794459431688907E-31, -0.7499999999999924505, 2.892166279675073687E-17 ) ) ;
#110 = CIRCLE ( 'NONE', #165, 0.7499999999999910072 ) ;
#111 = APPLICATION_PROTOCOL_DEFINITION ( 'international standard', 'config_control_design', 1994, #104 ) ;
#112 = EDGE_LOOP ( 'NONE', ( #29 ) ) ;
#113 = PERSON_AND_ORGANIZATION_ROLE ( 'classification_officer' ) ;
#114 = AXIS2_PLACEMENT_3D ( 'NONE', #196, #88, #140 ) ;
#115 = PERSON_AND_ORGANIZATION ( #2, #141 ) ;
#116 = AXIS2_PLACEMENT_3D ( 'NONE', #151, #35, #103 ) ;
#117 = APPROVAL_DATE_TIME ( #14, #189 ) ;
#118 = COORDINATED_UNIVERSAL_TIME_OFFSET ( 1, 0, .AHEAD. ) ;
#119 = EDGE_CURVE ( 'NONE', #148, #148, #7, .T. ) ;
#120 = CARTESIAN_POINT ( 'NONE',  ( 2.094888803305879382E-14, -1.040834085586091672E-14, 5.999999999999998224 ) ) ;
#121 = DIRECTION ( 'NONE',  ( -4.275831445896958607E-31, -1.000000000000000000, -1.224646799147353207E-16 ) ) ;
#122 = EDGE_CURVE ( 'NONE', #184, #184, #132, .T. ) ;
#123 = DIRECTION ( 'NONE',  ( 3.491481338843133355E-15, -1.224646799147353207E-16, 1.000000000000000000 ) ) ;
#124 = DIRECTION ( 'NONE',  ( 0.0000000000000000000, 1.000000000000000000, 0.0000000000000000000 ) ) ;
#125 = CONICAL_SURFACE ( 'NONE', #17, 0.6999999999999961808, 0.7853981633974447263 ) ;
#126 = ORIENTED_EDGE ( 'NONE', *, *, #122, .F. ) ;
#127 = CARTESIAN_POINT ( 'NONE',  ( 2.787708153041017325E-14, -0.9999999999999961142, 7.984313483298454805 ) ) ;
#128 = CARTESIAN_POINT ( 'NONE',  ( 4.246249744875651924E-31, -3.016685741423447673E-32, 1.216174263237678743E-16 ) ) ;
#129 = EDGE_LOOP ( 'NONE', ( #67 ) ) ;
#130 = CARTESIAN_POINT ( 'NONE',  ( 0.0000000000000000000, 0.0000000000000000000, 0.0000000000000000000 ) ) ;
#131 = APPROVAL_PERSON_ORGANIZATION ( #172, #178, #40 ) ;
#132 = CIRCLE ( 'NONE', #28, 0.9999999999999956701 ) ;
#133 = VERTEX_POINT ( 'NONE', #20 ) ;
#134 = DATE_TIME_ROLE ( 'classification_date' ) ;
#135 = AXIS2_PLACEMENT_3D ( 'NONE', #72, #37, #5 ) ;
#136 = PERSON_AND_ORGANIZATION ( #2, #141 ) ;
#137 = DATE_AND_TIME ( #220, #188 ) ;
#138 = EDGE_CURVE ( 'NONE', #38, #38, #110, .T. ) ;
#139 = ORIENTED_EDGE ( 'NONE', *, *, #138, .T. ) ;
#140 = DIRECTION ( 'NONE',  ( 4.275831445896957731E-31, 1.000000000000000000, 1.224646799147352961E-16 ) ) ;
#141 = ORGANIZATION ( 'UNSPECIFIED', 'UNSPECIFIED', '' ) ;
#142 = FACE_OUTER_BOUND ( 'NONE', #18, .T. ) ;
#143 = CC_DESIGN_PERSON_AND_ORGANIZATION_ASSIGNMENT ( #136, #94, ( #215 ) ) ;
#144 = DIRECTION ( 'NONE',  ( 3.491481338843133355E-15, -1.235943513693574240E-16, 1.000000000000000000 ) ) ;
#145 = CARTESIAN_POINT ( 'NONE',  ( 1.117274028429802674E-13, -3.918869757271530263E-15, 32.00000000000000000 ) ) ;
#146 = AXIS2_PLACEMENT_3D ( 'NONE', #120, #166, #101 ) ;
#147 = FACE_OUTER_BOUND ( 'NONE', #167, .T. ) ;
#148 = VERTEX_POINT ( 'NONE', #127 ) ;
#149 = AXIS2_PLACEMENT_3D ( 'NONE', #130, #201, #39 ) ;
#150 = ORIENTED_EDGE ( 'NONE', *, *, #221, .T. ) ;
#151 = CARTESIAN_POINT ( 'NONE',  ( 1.117274028429802674E-13, -3.918869757271530263E-15, 32.00000000000000000 ) ) ;
#152 = CARTESIAN_POINT ( 'NONE',  ( 1.106799584413273211E-13, -3.882130353297110192E-15, 31.69999999999999929 ) ) ;
#153 = DIRECTION ( 'NONE',  ( -4.315273713925326938E-31, -1.000000000000000000, -1.235943513693574240E-16 ) ) ;
#154 = APPROVAL_STATUS ( 'not_yet_approved' ) ;
#155 = EDGE_CURVE ( 'NONE', #23, #23, #193, .T. ) ;
#156 = PERSON_AND_ORGANIZATION ( #2, #141 ) ;
#157 = APPROVAL_ROLE ( '' ) ;
#158 = AXIS2_PLACEMENT_3D ( 'NONE', #90, #9, #68 ) ;
#159 = APPLICATION_CONTEXT ( 'configuration controlled 3d designs of mechanical parts and assemblies' ) ;
#160 = CC_DESIGN_APPROVAL ( #189, ( #215 ) ) ;
#161 = UNCERTAINTY_MEASURE_WITH_UNIT (LENGTH_MEASURE( 1.000000000000000082E-05 ), #89, 'distance_accuracy_value', 'NONE');
#162 = ORIENTED_EDGE ( 'NONE', *, *, #221, .F. ) ;
#163 = FACE_OUTER_BOUND ( 'NONE', #180, .T. ) ;
#164 = EDGE_LOOP ( 'NONE', ( #150 ) ) ;
#165 = AXIS2_PLACEMENT_3D ( 'NONE', #22, #57, #56 ) ;
#166 = DIRECTION ( 'NONE',  ( 3.491481338843133355E-15, -1.224646799147353207E-16, 1.000000000000000000 ) ) ;
#167 = EDGE_LOOP ( 'NONE', ( #139 ) ) ;
#168 = FACE_OUTER_BOUND ( 'NONE', #108, .T. ) ;
#169 = FACE_OUTER_BOUND ( 'NONE', #164, .T. ) ;
#170 = FACE_OUTER_BOUND ( 'NONE', #129, .T. ) ;
#171 = CC_DESIGN_PERSON_AND_ORGANIZATION_ASSIGNMENT ( #115, #190, ( #194 ) ) ;
#172 = PERSON_AND_ORGANIZATION ( #2, #141 ) ;
#173 = APPROVAL_PERSON_ORGANIZATION ( #12, #189, #157 ) ;
#174 = COORDINATED_UNIVERSAL_TIME_OFFSET ( 1, 0, .AHEAD. ) ;
#175 = APPROVAL_STATUS ( 'not_yet_approved' ) ;
#176 = CIRCLE ( 'NONE', #222, 0.7499999999999924505 ) ;
#177 = CIRCLE ( 'NONE', #158, 0.7499999999999910072 ) ;
#178 = APPROVAL ( #175, 'UNSPECIFIED' ) ;
#179 = FACE_OUTER_BOUND ( 'NONE', #36, .T. ) ;
#180 = EDGE_LOOP ( 'NONE', ( #162 ) ) ;
#181 = FACE_BOUND ( 'NONE', #46, .T. ) ;
#182 = CARTESIAN_POINT ( 'NONE',  ( 2.094888803305879382E-14, -1.040834085586091672E-14, 5.999999999999998224 ) ) ;
#183 = MANIFOLD_SOLID_BREP ( 'Corps-Déplacer/Copier1[1]', #211 ) ;
#184 = VERTEX_POINT ( 'NONE', #52 ) ;
#185 = ORIENTED_EDGE ( 'NONE', *, *, #119, .F. ) ;
#186 = DIRECTION ( 'NONE',  ( 3.491481338843133355E-15, -1.235943513693574240E-16, 1.000000000000000000 ) ) ;
#187 = MANIFOLD_SOLID_BREP ( 'Corps-Déplacer/Copier1[2]', #16 ) ;
#188 = LOCAL_TIME ( 9, 31, 33.00000000000000000, #174 ) ;
#189 = APPROVAL ( #154, 'UNSPECIFIED' ) ;
#190 = PERSON_AND_ORGANIZATION_ROLE ( 'creator' ) ;
#191 = CALENDAR_DATE ( 2021, 9, 11 ) ;
#192 = DATE_AND_TIME ( #42, #27 ) ;
#193 = CIRCLE ( 'NONE', #116, 0.6999999999999961808 ) ;
#194 = PRODUCT_DEFINITION ( 'UNKNOWN', '', #215, #99 ) ;
#195 = DIRECTION ( 'NONE',  ( -4.275831445896958607E-31, -1.000000000000000000, -1.224646799147353207E-16 ) ) ;
#196 = CARTESIAN_POINT ( 'NONE',  ( 0.0000000000000000000, 0.0000000000000000000, 0.0000000000000000000 ) ) ;
#197 = PLANE ( 'NONE',  #98 ) ;
#198 = ORIENTED_EDGE ( 'NONE', *, *, #155, .T. ) ;
#199 = PRODUCT ( '690', '690', '', ( #218 ) ) ;
#200 = DIRECTION ( 'NONE',  ( -3.491481338843133355E-15, 1.224646799147353207E-16, -1.000000000000000000 ) ) ;
#201 = DIRECTION ( 'NONE',  ( 0.0000000000000000000, 0.0000000000000000000, 1.000000000000000000 ) ) ;
#202 = ADVANCED_BREP_SHAPE_REPRESENTATION ( '690', ( #183, #187, #149 ), #64 ) ;
#203 = AXIS2_PLACEMENT_3D ( 'NONE', #182, #208, #121 ) ;
#204 = APPROVAL_DATE_TIME ( #78, #60 ) ;
#205 = APPROVAL_PERSON_ORGANIZATION ( #13, #60, #219 ) ;
#206 = COORDINATED_UNIVERSAL_TIME_OFFSET ( 1, 0, .AHEAD. ) ;
#207 = ADVANCED_FACE ( 'NONE', ( #212, #181 ), #125, .T. ) ;
#208 = DIRECTION ( 'NONE',  ( 3.491481338843133355E-15, -1.224646799147353207E-16, 1.000000000000000000 ) ) ;
#209 = FACE_OUTER_BOUND ( 'NONE', #50, .T. ) ;
#210 = DIRECTION ( 'NONE',  ( -4.378689342351021642E-31, -1.000000000000000000, -1.235943513693574240E-16 ) ) ;
#211 = CLOSED_SHELL ( 'NONE', ( #31, #207, #97, #83, #11 ) ) ;
#212 = FACE_OUTER_BOUND ( 'NONE', #54, .T. ) ;
#213 = ADVANCED_FACE ( 'NONE', ( #169, #170 ), #107, .T. ) ;
#214 = EDGE_LOOP ( 'NONE', ( #223 ) ) ;
#215 = PRODUCT_DEFINITION_FORMATION_WITH_SPECIFIED_SOURCE ( 'ANY', '', #199, .NOT_KNOWN. ) ;
#216 = DIRECTION ( 'NONE',  ( -4.315273713925326938E-31, -1.000000000000000000, -1.235943513693574240E-16 ) ) ;
#217 =( NAMED_UNIT ( * ) PLANE_ANGLE_UNIT ( ) SI_UNIT ( $, .RADIAN. ) );
#218 = MECHANICAL_CONTEXT ( 'NONE', #104, 'mechanical' ) ;
#219 = APPROVAL_ROLE ( '' ) ;
#220 = CALENDAR_DATE ( 2021, 9, 11 ) ;
#221 = EDGE_CURVE ( 'NONE', #87, #87, #176, .T. ) ;
#222 = AXIS2_PLACEMENT_3D ( 'NONE', #128, #186, #216 ) ;
#223 = ORIENTED_EDGE ( 'NONE', *, *, #30, .F. ) ;
ENDSEC;
END-ISO-10303-21;
