ISO-10303-21;
HEADER;
FILE_DESCRIPTION (( 'STEP AP203' ),
    '1' );
FILE_NAME ('689.step',
    '2021-12-06T13:00:18',
    ( '' ),
    ( '' ),
    'SwSTEP 2.0',
    'SolidWorks 2019',
    '' );
FILE_SCHEMA (( 'CONFIG_CONTROL_DESIGN' ));
ENDSEC;

DATA;
#1 = VERTEX_POINT ( 'NONE', #136 ) ;
#2 = DESIGN_CONTEXT ( 'detailed design', #99, 'design' ) ;
#3 = CC_DESIGN_DATE_AND_TIME_ASSIGNMENT ( #137, #47, ( #114 ) ) ;
#4 = DIRECTION ( 'NONE',  ( -3.491481338843133355E-15, 1.224646799147353207E-16, -1.000000000000000000 ) ) ;
#5 = ORGANIZATION ( 'UNSPECIFIED', 'UNSPECIFIED', '' ) ;
#6 = COORDINATED_UNIVERSAL_TIME_OFFSET ( 1, 0, .AHEAD. ) ;
#7 = SECURITY_CLASSIFICATION_LEVEL ( 'unclassified' ) ;
#8 = COORDINATED_UNIVERSAL_TIME_OFFSET ( 1, 0, .AHEAD. ) ;
#9 = DIRECTION ( 'NONE',  ( 1.000000000000000000, 0.0000000000000000000, 0.0000000000000000000 ) ) ;
#10 = PRODUCT_DEFINITION_SHAPE ( 'NONE', 'NONE',  #101 ) ;
#11 = PRODUCT_DEFINITION_FORMATION_WITH_SPECIFIED_SOURCE ( 'ANY', '', #129, .NOT_KNOWN. ) ;
#12 = DIRECTION ( 'NONE',  ( -3.491481338843133355E-15, 1.224646799147353207E-16, -1.000000000000000000 ) ) ;
#13 = FACE_BOUND ( 'NONE', #135, .T. ) ;
#14 = ADVANCED_FACE ( 'NONE', ( #13, #155 ), #159, .T. ) ;
#15 = DIRECTION ( 'NONE',  ( 4.275831445896957731E-31, 1.000000000000000000, 1.224646799147353207E-16 ) ) ;
#16 = CARTESIAN_POINT ( 'NONE',  ( 8.728703347107828655E-15, -3.061616997868381662E-16, 2.499999999999998668 ) ) ;
#17 = EDGE_LOOP ( 'NONE', ( #28 ) ) ;
#18 = AXIS2_PLACEMENT_3D ( 'NONE', #52, #12, #15 ) ;
#19 = APPROVAL_DATE_TIME ( #125, #147 ) ;
#20 = APPROVAL_PERSON_ORGANIZATION ( #110, #69, #95 ) ;
#21 = DATE_AND_TIME ( #109, #81 ) ;
#22 = COORDINATED_UNIVERSAL_TIME_OFFSET ( 1, 0, .AHEAD. ) ;
#23 =( NAMED_UNIT ( * ) SI_UNIT ( $, .STERADIAN. ) SOLID_ANGLE_UNIT ( ) );
#24 = EDGE_CURVE ( 'NONE', #42, #42, #62, .T. ) ;
#25 = DIRECTION ( 'NONE',  ( -4.275831445896958607E-31, -1.000000000000000000, -1.224646799147353207E-16 ) ) ;
#26 = ADVANCED_FACE ( 'NONE', ( #154, #87 ), #169, .T. ) ;
#27 = ORIENTED_EDGE ( 'NONE', *, *, #78, .T. ) ;
#28 = ORIENTED_EDGE ( 'NONE', *, *, #161, .F. ) ;
#29 = CC_DESIGN_APPROVAL ( #69, ( #114 ) ) ;
#30 = CARTESIAN_POINT ( 'NONE',  ( 0.0000000000000000000, 50.00000000000000000, 0.0000000000000000000 ) ) ;
#31 =( LENGTH_UNIT ( ) NAMED_UNIT ( * ) SI_UNIT ( .MILLI., .METRE. ) );
#32 = AXIS2_PLACEMENT_3D ( 'NONE', #16, #85, #104 ) ;
#33 = APPLICATION_PROTOCOL_DEFINITION ( 'international standard', 'config_control_design', 1994, #72 ) ;
#34 = DATE_AND_TIME ( #108, #138 ) ;
#35 = CARTESIAN_POINT ( 'NONE',  ( 0.0000000000000000000, 0.0000000000000000000, 0.0000000000000000000 ) ) ;
#36 = CC_DESIGN_PERSON_AND_ORGANIZATION_ASSIGNMENT ( #148, #112, ( #114 ) ) ;
#37 = CARTESIAN_POINT ( 'NONE',  ( 0.0000000000000000000, 11.00000000000000000, 0.0000000000000000000 ) ) ;
#38 = AXIS2_PLACEMENT_3D ( 'NONE', #73, #4, #152 ) ;
#39 = ADVANCED_BREP_SHAPE_REPRESENTATION ( '689', ( #92, #68 ), #166 ) ;
#40 = EDGE_LOOP ( 'NONE', ( #27 ) ) ;
#41 = FACE_OUTER_BOUND ( 'NONE', #144, .T. ) ;
#42 = VERTEX_POINT ( 'NONE', #89 ) ;
#43 = CLOSED_SHELL ( 'NONE', ( #26, #48, #14, #164 ) ) ;
#44 = ORIENTED_EDGE ( 'NONE', *, *, #24, .F. ) ;
#45 = PERSON_AND_ORGANIZATION ( #151, #5 ) ;
#46 = APPLICATION_PROTOCOL_DEFINITION ( 'international standard', 'config_control_design', 1994, #99 ) ;
#47 = DATE_TIME_ROLE ( 'classification_date' ) ;
#48 = ADVANCED_FACE ( 'NONE', ( #75, #41 ), #131, .T. ) ;
#49 = APPROVAL_PERSON_ORGANIZATION ( #126, #83, #57 ) ;
#50 = CC_DESIGN_PERSON_AND_ORGANIZATION_ASSIGNMENT ( #45, #56, ( #11 ) ) ;
#51 = ORIENTED_EDGE ( 'NONE', *, *, #78, .F. ) ;
#52 = CARTESIAN_POINT ( 'NONE',  ( -4.703414590486653942E-30, 1.649735760928043369E-31, -1.347111479062088405E-15 ) ) ;
#53 = CARTESIAN_POINT ( 'NONE',  ( 0.0000000000000000000, 0.0000000000000000000, 0.0000000000000000000 ) ) ;
#54 = DIRECTION ( 'NONE',  ( -3.491481338843133355E-15, 1.224646799147353207E-16, -1.000000000000000000 ) ) ;
#55 = COORDINATED_UNIVERSAL_TIME_OFFSET ( 1, 0, .AHEAD. ) ;
#56 = PERSON_AND_ORGANIZATION_ROLE ( 'creator' ) ;
#57 = APPROVAL_ROLE ( '' ) ;
#58 = CC_DESIGN_APPROVAL ( #147, ( #101 ) ) ;
#59 = APPROVAL_DATE_TIME ( #21, #83 ) ;
#60 = PERSON_AND_ORGANIZATION ( #151, #5 ) ;
#61 = CIRCLE ( 'NONE', #38, 50.00000000000000000 ) ;
#62 = CIRCLE ( 'NONE', #32, 11.00000000000000000 ) ;
#63 = DIRECTION ( 'NONE',  ( 3.491481338843133355E-15, -1.224646799147353207E-16, 1.000000000000000000 ) ) ;
#64 = DIRECTION ( 'NONE',  ( -3.491481338843133355E-15, 1.224646799147353207E-16, -1.000000000000000000 ) ) ;
#65 = FACE_OUTER_BOUND ( 'NONE', #103, .T. ) ;
#66 = CARTESIAN_POINT ( 'NONE',  ( -2.137915722948479268E-29, 7.498798913309288477E-31, -6.123233995736766085E-15 ) ) ;
#67 = EDGE_LOOP ( 'NONE', ( #44 ) ) ;
#68 = AXIS2_PLACEMENT_3D ( 'NONE', #35, #94, #9 ) ;
#69 = APPROVAL ( #162, 'UNSPECIFIED' ) ;
#70 = APPROVAL_STATUS ( 'not_yet_approved' ) ;
#71 = PERSON_AND_ORGANIZATION_ROLE ( 'creator' ) ;
#72 = APPLICATION_CONTEXT ( 'configuration controlled 3d designs of mechanical parts and assemblies' ) ;
#73 = CARTESIAN_POINT ( 'NONE',  ( 8.728703347107812878E-15, -3.061616997868375746E-16, 2.499999999999993783 ) ) ;
#74 = ORIENTED_EDGE ( 'NONE', *, *, #130, .T. ) ;
#75 = FACE_OUTER_BOUND ( 'NONE', #40, .T. ) ;
#76 = VERTEX_POINT ( 'NONE', #37 ) ;
#77 = DIRECTION ( 'NONE',  ( -3.491481338843133355E-15, 1.224646799147353207E-16, -1.000000000000000000 ) ) ;
#78 = EDGE_CURVE ( 'NONE', #1, #1, #61, .T. ) ;
#79 = MECHANICAL_CONTEXT ( 'NONE', #72, 'mechanical' ) ;
#80 = PERSON_AND_ORGANIZATION ( #151, #5 ) ;
#81 = LOCAL_TIME ( 14, 0, 18.00000000000000000, #55 ) ;
#82 = APPROVAL_STATUS ( 'not_yet_approved' ) ;
#83 = APPROVAL ( #82, 'UNSPECIFIED' ) ;
#84 = CIRCLE ( 'NONE', #18, 11.00000000000000000 ) ;
#85 = DIRECTION ( 'NONE',  ( -3.491481338843133355E-15, 1.224646799147353207E-16, -1.000000000000000000 ) ) ;
#86 = AXIS2_PLACEMENT_3D ( 'NONE', #66, #54, #133 ) ;
#87 = FACE_BOUND ( 'NONE', #17, .T. ) ;
#88 = EDGE_LOOP ( 'NONE', ( #51 ) ) ;
#89 = CARTESIAN_POINT ( 'NONE',  ( 8.728703347107833388E-15, 11.00000000000000000, 2.500000000000000000 ) ) ;
#90 = DIRECTION ( 'NONE',  ( -3.491481338843133355E-15, 1.224646799147353207E-16, -1.000000000000000000 ) ) ;
#91 = CC_DESIGN_PERSON_AND_ORGANIZATION_ASSIGNMENT ( #93, #146, ( #11 ) ) ;
#92 = MANIFOLD_SOLID_BREP ( 'Corps-Déplacer/Copier1', #43 ) ;
#93 = PERSON_AND_ORGANIZATION ( #151, #5 ) ;
#94 = DIRECTION ( 'NONE',  ( 0.0000000000000000000, 0.0000000000000000000, 1.000000000000000000 ) ) ;
#95 = APPROVAL_ROLE ( '' ) ;
#96 = PERSON_AND_ORGANIZATION ( #151, #5 ) ;
#97 = CC_DESIGN_SECURITY_CLASSIFICATION ( #114, ( #11 ) ) ;
#98 = CC_DESIGN_PERSON_AND_ORGANIZATION_ASSIGNMENT ( #80, #123, ( #129 ) ) ;
#99 = APPLICATION_CONTEXT ( 'configuration controlled 3d designs of mechanical parts and assemblies' ) ;
#100 = AXIS2_PLACEMENT_3D ( 'NONE', #119, #64, #145 ) ;
#101 = PRODUCT_DEFINITION ( 'UNKNOWN', '', #11, #2 ) ;
#102 = VERTEX_POINT ( 'NONE', #30 ) ;
#103 = EDGE_LOOP ( 'NONE', ( #117 ) ) ;
#104 = DIRECTION ( 'NONE',  ( 4.202028969572151271E-31, 1.000000000000000000, 1.182766006347823109E-16 ) ) ;
#105 = FACE_OUTER_BOUND ( 'NONE', #67, .T. ) ;
#106 = ORIENTED_EDGE ( 'NONE', *, *, #130, .F. ) ;
#107 = LOCAL_TIME ( 14, 0, 18.00000000000000000, #8 ) ;
#108 = CALENDAR_DATE ( 2021, 6, 12 ) ;
#109 = CALENDAR_DATE ( 2021, 6, 12 ) ;
#110 = PERSON_AND_ORGANIZATION ( #151, #5 ) ;
#111 = PRODUCT_RELATED_PRODUCT_CATEGORY ( 'detail', '', ( #129 ) ) ;
#112 = PERSON_AND_ORGANIZATION_ROLE ( 'classification_officer' ) ;
#113 = CALENDAR_DATE ( 2021, 6, 12 ) ;
#114 = SECURITY_CLASSIFICATION ( '', '', #7 ) ;
#115 = DIRECTION ( 'NONE',  ( 4.275831445896957731E-31, 1.000000000000000000, 1.224646799147353207E-16 ) ) ;
#116 = CC_DESIGN_DATE_AND_TIME_ASSIGNMENT ( #165, #150, ( #101 ) ) ;
#117 = ORIENTED_EDGE ( 'NONE', *, *, #161, .T. ) ;
#118 = CC_DESIGN_APPROVAL ( #83, ( #11 ) ) ;
#119 = CARTESIAN_POINT ( 'NONE',  ( -8.337871319499069370E-30, 11.00000000000000000, -2.388061258337338939E-15 ) ) ;
#120 = CYLINDRICAL_SURFACE ( 'NONE', #122, 11.00000000000000000 ) ;
#121 = CARTESIAN_POINT ( 'NONE',  ( 8.728703347107823922E-15, 11.00000000000000000, 2.499999999999997335 ) ) ;
#122 = AXIS2_PLACEMENT_3D ( 'NONE', #157, #77, #115 ) ;
#123 = PERSON_AND_ORGANIZATION_ROLE ( 'design_owner' ) ;
#124 = CALENDAR_DATE ( 2021, 6, 12 ) ;
#125 = DATE_AND_TIME ( #124, #134 ) ;
#126 = PERSON_AND_ORGANIZATION ( #151, #5 ) ;
#127 = AXIS2_PLACEMENT_3D ( 'NONE', #53, #90, #168 ) ;
#128 = CIRCLE ( 'NONE', #86, 50.00000000000000000 ) ;
#129 = PRODUCT ( '689', '689', '', ( #79 ) ) ;
#130 = EDGE_CURVE ( 'NONE', #102, #102, #128, .T. ) ;
#131 = CYLINDRICAL_SURFACE ( 'NONE', #127, 50.00000000000000000 ) ;
#132 = EDGE_LOOP ( 'NONE', ( #74 ) ) ;
#133 = DIRECTION ( 'NONE',  ( 4.275831445896958607E-31, 1.000000000000000000, 1.224646799147353207E-16 ) ) ;
#134 = LOCAL_TIME ( 14, 0, 18.00000000000000000, #22 ) ;
#135 = EDGE_LOOP ( 'NONE', ( #143 ) ) ;
#136 = CARTESIAN_POINT ( 'NONE',  ( 8.728703347107833388E-15, 50.00000000000000000, 2.500000000000000000 ) ) ;
#137 = DATE_AND_TIME ( #163, #107 ) ;
#138 = LOCAL_TIME ( 14, 0, 18.00000000000000000, #149 ) ;
#139 = APPROVAL_ROLE ( '' ) ;
#140 =( NAMED_UNIT ( * ) PLANE_ANGLE_UNIT ( ) SI_UNIT ( $, .RADIAN. ) );
#141 = AXIS2_PLACEMENT_3D ( 'NONE', #121, #63, #25 ) ;
#142 = SHAPE_DEFINITION_REPRESENTATION ( #10, #39 ) ;
#143 = ORIENTED_EDGE ( 'NONE', *, *, #24, .T. ) ;
#144 = EDGE_LOOP ( 'NONE', ( #106 ) ) ;
#145 = DIRECTION ( 'NONE',  ( 4.275831445896958607E-31, 1.000000000000000000, 1.224646799147353207E-16 ) ) ;
#146 = PERSON_AND_ORGANIZATION_ROLE ( 'design_supplier' ) ;
#147 = APPROVAL ( #70, 'UNSPECIFIED' ) ;
#148 = PERSON_AND_ORGANIZATION ( #151, #5 ) ;
#149 = COORDINATED_UNIVERSAL_TIME_OFFSET ( 1, 0, .AHEAD. ) ;
#150 = DATE_TIME_ROLE ( 'creation_date' ) ;
#151 = PERSON ( 'UNSPECIFIED', 'UNSPECIFIED', 'UNSPECIFIED', ('UNSPECIFIED'), ('UNSPECIFIED'), ('UNSPECIFIED') ) ;
#152 = DIRECTION ( 'NONE',  ( 4.314083075427408311E-31, 1.000000000000000000, 1.214306433183764966E-16 ) ) ;
#153 = APPROVAL_PERSON_ORGANIZATION ( #60, #147, #139 ) ;
#154 = FACE_OUTER_BOUND ( 'NONE', #132, .T. ) ;
#155 = FACE_OUTER_BOUND ( 'NONE', #88, .T. ) ;
#156 = CC_DESIGN_PERSON_AND_ORGANIZATION_ASSIGNMENT ( #96, #71, ( #101 ) ) ;
#157 = CARTESIAN_POINT ( 'NONE',  ( 0.0000000000000000000, 0.0000000000000000000, 0.0000000000000000000 ) ) ;
#158 = UNCERTAINTY_MEASURE_WITH_UNIT (LENGTH_MEASURE( 1.000000000000000082E-05 ), #31, 'distance_accuracy_value', 'NONE');
#159 = PLANE ( 'NONE',  #141 ) ;
#160 = APPROVAL_DATE_TIME ( #34, #69 ) ;
#161 = EDGE_CURVE ( 'NONE', #76, #76, #84, .T. ) ;
#162 = APPROVAL_STATUS ( 'not_yet_approved' ) ;
#163 = CALENDAR_DATE ( 2021, 6, 12 ) ;
#164 = ADVANCED_FACE ( 'NONE', ( #65, #105 ), #120, .F. ) ;
#165 = DATE_AND_TIME ( #113, #167 ) ;
#166 =( GEOMETRIC_REPRESENTATION_CONTEXT ( 3 ) GLOBAL_UNCERTAINTY_ASSIGNED_CONTEXT ( ( #158 ) ) GLOBAL_UNIT_ASSIGNED_CONTEXT ( ( #31, #140, #23 ) ) REPRESENTATION_CONTEXT ( 'NONE', 'WORKASPACE' ) );
#167 = LOCAL_TIME ( 14, 0, 18.00000000000000000, #6 ) ;
#168 = DIRECTION ( 'NONE',  ( 4.275831445896958607E-31, 1.000000000000000000, 1.224646799147353207E-16 ) ) ;
#169 = PLANE ( 'NONE',  #100 ) ;
ENDSEC;
END-ISO-10303-21;
