ISO-10303-21;
HEADER;
FILE_DESCRIPTION (( 'STEP AP203' ),
    '1' );
FILE_NAME ('685.step',
    '2021-12-06T13:00:18',
    ( '' ),
    ( '' ),
    'SwSTEP 2.0',
    'SolidWorks 2019',
    '' );
FILE_SCHEMA (( 'CONFIG_CONTROL_DESIGN' ));
ENDSEC;

DATA;
#1 = CIRCLE ( 'NONE', #91, 50.00000000000000000 ) ;
#2 = DIRECTION ( 'NONE',  ( -3.491481338843133355E-15, 4.592425496802575944E-16, -1.000000000000000000 ) ) ;
#3 =( LENGTH_UNIT ( ) NAMED_UNIT ( * ) SI_UNIT ( .MILLI., .METRE. ) );
#4 = EDGE_LOOP ( 'NONE', ( #148 ) ) ;
#5 = PERSON_AND_ORGANIZATION ( #149, #61 ) ;
#6 = PLANE ( 'NONE',  #82 ) ;
#7 = MECHANICAL_CONTEXT ( 'NONE', #12, 'mechanical' ) ;
#8 = DIRECTION ( 'NONE',  ( 1.603436792211359872E-30, 1.000000000000000000, 4.592425496802575944E-16 ) ) ;
#9 = DATE_AND_TIME ( #73, #111 ) ;
#10 = PERSON_AND_ORGANIZATION_ROLE ( 'creator' ) ;
#11 = MANIFOLD_SOLID_BREP ( 'Corps-Déplacer/Copier1', #60 ) ;
#12 = APPLICATION_CONTEXT ( 'configuration controlled 3d designs of mechanical parts and assemblies' ) ;
#13 = VERTEX_POINT ( 'NONE', #41 ) ;
#14 = AXIS2_PLACEMENT_3D ( 'NONE', #128, #74, #130 ) ;
#15 = CC_DESIGN_SECURITY_CLASSIFICATION ( #39, ( #101 ) ) ;
#16 = ADVANCED_FACE ( 'NONE', ( #64, #34 ), #51, .T. ) ;
#17 = ORIENTED_EDGE ( 'NONE', *, *, #88, .F. ) ;
#18 = DIRECTION ( 'NONE',  ( -3.491481338843133355E-15, 4.592425496802575944E-16, -1.000000000000000000 ) ) ;
#19 = APPROVAL_ROLE ( '' ) ;
#20 = FACE_OUTER_BOUND ( 'NONE', #47, .T. ) ;
#21 = CALENDAR_DATE ( 2021, 6, 12 ) ;
#22 = AXIS2_PLACEMENT_3D ( 'NONE', #24, #2, #146 ) ;
#23 = DIRECTION ( 'NONE',  ( -3.491481338843133355E-15, 4.592425496802575944E-16, -1.000000000000000000 ) ) ;
#24 = CARTESIAN_POINT ( 'NONE',  ( 2.793185071074488540E-15, -3.673940397442037188E-16, 0.7999999999999948264 ) ) ;
#25 = FACE_OUTER_BOUND ( 'NONE', #147, .T. ) ;
#26 = DESIGN_CONTEXT ( 'detailed design', #121, 'design' ) ;
#27 = AXIS2_PLACEMENT_3D ( 'NONE', #37, #151, #119 ) ;
#28 = CC_DESIGN_DATE_AND_TIME_ASSIGNMENT ( #129, #95, ( #118 ) ) ;
#29 = AXIS2_PLACEMENT_3D ( 'NONE', #141, #70, #52 ) ;
#30 = FACE_OUTER_BOUND ( 'NONE', #4, .T. ) ;
#31 = PERSON_AND_ORGANIZATION_ROLE ( 'design_owner' ) ;
#32 = CARTESIAN_POINT ( 'NONE',  ( 2.793185071074475130E-15, 11.00000000000000000, 0.7999999999999909406 ) ) ;
#33 = PERSON_AND_ORGANIZATION_ROLE ( 'classification_officer' ) ;
#34 = FACE_OUTER_BOUND ( 'NONE', #89, .T. ) ;
#35 = APPROVAL ( #138, 'UNSPECIFIED' ) ;
#36 = CIRCLE ( 'NONE', #22, 11.00000000000000000 ) ;
#37 = CARTESIAN_POINT ( 'NONE',  ( 0.0000000000000000000, 0.0000000000000000000, 0.0000000000000000000 ) ) ;
#38 = PERSON_AND_ORGANIZATION ( #149, #61 ) ;
#39 = SECURITY_CLASSIFICATION ( '', '', #120 ) ;
#40 = ADVANCED_BREP_SHAPE_REPRESENTATION ( '685', ( #11, #27 ), #115 ) ;
#41 = CARTESIAN_POINT ( 'NONE',  ( 0.0000000000000000000, 50.00000000000000000, 0.0000000000000000000 ) ) ;
#42 = PRODUCT_RELATED_PRODUCT_CATEGORY ( 'detail', '', ( #105 ) ) ;
#43 = CARTESIAN_POINT ( 'NONE',  ( 0.0000000000000000000, 11.00000000000000000, 0.0000000000000000000 ) ) ;
#44 = APPROVAL_PERSON_ORGANIZATION ( #5, #144, #53 ) ;
#45 = EDGE_LOOP ( 'NONE', ( #116 ) ) ;
#46 = DATE_TIME_ROLE ( 'classification_date' ) ;
#47 = EDGE_LOOP ( 'NONE', ( #107 ) ) ;
#48 = DATE_AND_TIME ( #21, #87 ) ;
#49 = COORDINATED_UNIVERSAL_TIME_OFFSET ( 1, 0, .AHEAD. ) ;
#50 = CC_DESIGN_APPROVAL ( #164, ( #39 ) ) ;
#51 = PLANE ( 'NONE',  #77 ) ;
#52 = DIRECTION ( 'NONE',  ( 1.603436792211359521E-30, 1.000000000000000000, 4.592425496802574958E-16 ) ) ;
#53 = APPROVAL_ROLE ( '' ) ;
#54 = EDGE_LOOP ( 'NONE', ( #150 ) ) ;
#55 = PERSON_AND_ORGANIZATION ( #149, #61 ) ;
#56 = PERSON_AND_ORGANIZATION ( #149, #61 ) ;
#57 = PERSON_AND_ORGANIZATION ( #149, #61 ) ;
#58 = APPLICATION_PROTOCOL_DEFINITION ( 'international standard', 'config_control_design', 1994, #121 ) ;
#59 = CC_DESIGN_PERSON_AND_ORGANIZATION_ASSIGNMENT ( #57, #33, ( #39 ) ) ;
#60 = CLOSED_SHELL ( 'NONE', ( #83, #166, #16, #136 ) ) ;
#61 = ORGANIZATION ( 'UNSPECIFIED', 'UNSPECIFIED', '' ) ;
#62 =( NAMED_UNIT ( * ) SI_UNIT ( $, .STERADIAN. ) SOLID_ANGLE_UNIT ( ) );
#63 = DIRECTION ( 'NONE',  ( 1.602373713730180230E-30, 1.000000000000000000, 4.597017211338538800E-16 ) ) ;
#64 = FACE_BOUND ( 'NONE', #90, .T. ) ;
#65 = APPROVAL_DATE_TIME ( #48, #164 ) ;
#66 = PERSON_AND_ORGANIZATION ( #149, #61 ) ;
#67 = APPROVAL_DATE_TIME ( #162, #144 ) ;
#68 = COORDINATED_UNIVERSAL_TIME_OFFSET ( 1, 0, .AHEAD. ) ;
#69 = FACE_OUTER_BOUND ( 'NONE', #45, .T. ) ;
#70 = DIRECTION ( 'NONE',  ( -3.491481338843133355E-15, 4.592425496802575944E-16, -1.000000000000000000 ) ) ;
#71 = CC_DESIGN_PERSON_AND_ORGANIZATION_ASSIGNMENT ( #55, #117, ( #118 ) ) ;
#72 = CARTESIAN_POINT ( 'NONE',  ( -3.126701744812152205E-29, 11.00000000000000000, -8.955229718765023486E-15 ) ) ;
#73 = CALENDAR_DATE ( 2021, 6, 12 ) ;
#74 = DIRECTION ( 'NONE',  ( -3.491481338843133355E-15, 4.592425496802575944E-16, -1.000000000000000000 ) ) ;
#75 = APPROVAL_STATUS ( 'not_yet_approved' ) ;
#76 = ORIENTED_EDGE ( 'NONE', *, *, #106, .T. ) ;
#77 = AXIS2_PLACEMENT_3D ( 'NONE', #32, #133, #78 ) ;
#78 = DIRECTION ( 'NONE',  ( -1.603436792211359872E-30, -1.000000000000000000, -4.592425496802575944E-16 ) ) ;
#79 = COORDINATED_UNIVERSAL_TIME_OFFSET ( 1, 0, .AHEAD. ) ;
#80 = FACE_OUTER_BOUND ( 'NONE', #127, .T. ) ;
#81 = APPROVAL_STATUS ( 'not_yet_approved' ) ;
#82 = AXIS2_PLACEMENT_3D ( 'NONE', #72, #23, #8 ) ;
#83 = ADVANCED_FACE ( 'NONE', ( #30, #134 ), #6, .T. ) ;
#84 = CC_DESIGN_APPROVAL ( #35, ( #118 ) ) ;
#85 = VERTEX_POINT ( 'NONE', #43 ) ;
#86 = DIRECTION ( 'NONE',  ( 1.603436792211359872E-30, 1.000000000000000000, 4.592425496802575944E-16 ) ) ;
#87 = LOCAL_TIME ( 14, 0, 18.00000000000000000, #132 ) ;
#88 = EDGE_CURVE ( 'NONE', #123, #123, #36, .T. ) ;
#89 = EDGE_LOOP ( 'NONE', ( #94 ) ) ;
#90 = EDGE_LOOP ( 'NONE', ( #159 ) ) ;
#91 = AXIS2_PLACEMENT_3D ( 'NONE', #113, #18, #63 ) ;
#92 = CARTESIAN_POINT ( 'NONE',  ( 2.793185071074506290E-15, 50.00000000000000000, 0.7999999999999999334 ) ) ;
#93 = APPLICATION_PROTOCOL_DEFINITION ( 'international standard', 'config_control_design', 1994, #12 ) ;
#94 = ORIENTED_EDGE ( 'NONE', *, *, #106, .F. ) ;
#95 = DATE_TIME_ROLE ( 'creation_date' ) ;
#96 = LOCAL_TIME ( 14, 0, 18.00000000000000000, #79 ) ;
#97 = COORDINATED_UNIVERSAL_TIME_OFFSET ( 1, 0, .AHEAD. ) ;
#98 = PERSON_AND_ORGANIZATION ( #149, #61 ) ;
#99 = EDGE_CURVE ( 'NONE', #13, #13, #163, .T. ) ;
#100 = CYLINDRICAL_SURFACE ( 'NONE', #112, 50.00000000000000000 ) ;
#101 = PRODUCT_DEFINITION_FORMATION_WITH_SPECIFIED_SOURCE ( 'ANY', '', #105, .NOT_KNOWN. ) ;
#102 = CARTESIAN_POINT ( 'NONE',  ( 2.793185071074506290E-15, 11.00000000000000000, 0.7999999999999999334 ) ) ;
#103 = CIRCLE ( 'NONE', #29, 11.00000000000000000 ) ;
#104 = PERSON_AND_ORGANIZATION_ROLE ( 'design_supplier' ) ;
#105 = PRODUCT ( '685', '685', '', ( #7 ) ) ;
#106 = EDGE_CURVE ( 'NONE', #158, #158, #1, .T. ) ;
#107 = ORIENTED_EDGE ( 'NONE', *, *, #140, .T. ) ;
#108 = CALENDAR_DATE ( 2021, 6, 12 ) ;
#109 = SHAPE_DEFINITION_REPRESENTATION ( #137, #40 ) ;
#110 = CALENDAR_DATE ( 2021, 6, 12 ) ;
#111 = LOCAL_TIME ( 14, 0, 18.00000000000000000, #68 ) ;
#112 = AXIS2_PLACEMENT_3D ( 'NONE', #125, #154, #86 ) ;
#113 = CARTESIAN_POINT ( 'NONE',  ( 2.793185071074426220E-15, -3.673940397441954851E-16, 0.7999999999999769518 ) ) ;
#114 = APPROVAL_DATE_TIME ( #9, #35 ) ;
#115 =( GEOMETRIC_REPRESENTATION_CONTEXT ( 3 ) GLOBAL_UNCERTAINTY_ASSIGNED_CONTEXT ( ( #153 ) ) GLOBAL_UNIT_ASSIGNED_CONTEXT ( ( #3, #142, #62 ) ) REPRESENTATION_CONTEXT ( 'NONE', 'WORKASPACE' ) );
#116 = ORIENTED_EDGE ( 'NONE', *, *, #99, .F. ) ;
#117 = PERSON_AND_ORGANIZATION_ROLE ( 'creator' ) ;
#118 = PRODUCT_DEFINITION ( 'UNKNOWN', '', #101, #26 ) ;
#119 = DIRECTION ( 'NONE',  ( 1.000000000000000000, 0.0000000000000000000, 0.0000000000000000000 ) ) ;
#120 = SECURITY_CLASSIFICATION_LEVEL ( 'unclassified' ) ;
#121 = APPLICATION_CONTEXT ( 'configuration controlled 3d designs of mechanical parts and assemblies' ) ;
#122 = CC_DESIGN_PERSON_AND_ORGANIZATION_ASSIGNMENT ( #38, #10, ( #101 ) ) ;
#123 = VERTEX_POINT ( 'NONE', #102 ) ;
#124 = APPROVAL_PERSON_ORGANIZATION ( #98, #164, #165 ) ;
#125 = CARTESIAN_POINT ( 'NONE',  ( 0.0000000000000000000, 0.0000000000000000000, 0.0000000000000000000 ) ) ;
#126 = AXIS2_PLACEMENT_3D ( 'NONE', #168, #157, #156 ) ;
#127 = EDGE_LOOP ( 'NONE', ( #17 ) ) ;
#128 = CARTESIAN_POINT ( 'NONE',  ( -8.017183961056799778E-29, 1.054518597184119445E-29, -2.296212748401288130E-14 ) ) ;
#129 = DATE_AND_TIME ( #108, #143 ) ;
#130 = DIRECTION ( 'NONE',  ( 1.603436792211359872E-30, 1.000000000000000000, 4.592425496802575944E-16 ) ) ;
#131 = CC_DESIGN_PERSON_AND_ORGANIZATION_ASSIGNMENT ( #66, #31, ( #105 ) ) ;
#132 = COORDINATED_UNIVERSAL_TIME_OFFSET ( 1, 0, .AHEAD. ) ;
#133 = DIRECTION ( 'NONE',  ( 3.491481338843133355E-15, -4.592425496802575944E-16, 1.000000000000000000 ) ) ;
#134 = FACE_BOUND ( 'NONE', #54, .T. ) ;
#135 = PERSON_AND_ORGANIZATION ( #149, #61 ) ;
#136 = ADVANCED_FACE ( 'NONE', ( #20, #80 ), #145, .F. ) ;
#137 = PRODUCT_DEFINITION_SHAPE ( 'NONE', 'NONE',  #118 ) ;
#138 = APPROVAL_STATUS ( 'not_yet_approved' ) ;
#139 = LOCAL_TIME ( 14, 0, 18.00000000000000000, #97 ) ;
#140 = EDGE_CURVE ( 'NONE', #85, #85, #103, .T. ) ;
#141 = CARTESIAN_POINT ( 'NONE',  ( -1.763780471432495649E-29, 2.319940913805062078E-30, -5.051668046482832750E-15 ) ) ;
#142 =( NAMED_UNIT ( * ) PLANE_ANGLE_UNIT ( ) SI_UNIT ( $, .RADIAN. ) );
#143 = LOCAL_TIME ( 14, 0, 18.00000000000000000, #49 ) ;
#144 = APPROVAL ( #81, 'UNSPECIFIED' ) ;
#145 = CYLINDRICAL_SURFACE ( 'NONE', #126, 11.00000000000000000 ) ;
#146 = DIRECTION ( 'NONE',  ( 1.610777771669324595E-30, 1.000000000000000000, 4.632500191528973760E-16 ) ) ;
#147 = EDGE_LOOP ( 'NONE', ( #76 ) ) ;
#148 = ORIENTED_EDGE ( 'NONE', *, *, #99, .T. ) ;
#149 = PERSON ( 'UNSPECIFIED', 'UNSPECIFIED', 'UNSPECIFIED', ('UNSPECIFIED'), ('UNSPECIFIED'), ('UNSPECIFIED') ) ;
#150 = ORIENTED_EDGE ( 'NONE', *, *, #140, .F. ) ;
#151 = DIRECTION ( 'NONE',  ( 0.0000000000000000000, 0.0000000000000000000, 1.000000000000000000 ) ) ;
#152 = APPROVAL_PERSON_ORGANIZATION ( #56, #35, #19 ) ;
#153 = UNCERTAINTY_MEASURE_WITH_UNIT (LENGTH_MEASURE( 1.000000000000000082E-05 ), #3, 'distance_accuracy_value', 'NONE');
#154 = DIRECTION ( 'NONE',  ( -3.491481338843133355E-15, 4.592425496802575944E-16, -1.000000000000000000 ) ) ;
#155 = CC_DESIGN_PERSON_AND_ORGANIZATION_ASSIGNMENT ( #135, #104, ( #101 ) ) ;
#156 = DIRECTION ( 'NONE',  ( 1.603436792211359521E-30, 1.000000000000000000, 4.592425496802574958E-16 ) ) ;
#157 = DIRECTION ( 'NONE',  ( -3.491481338843133355E-15, 4.592425496802575944E-16, -1.000000000000000000 ) ) ;
#158 = VERTEX_POINT ( 'NONE', #92 ) ;
#159 = ORIENTED_EDGE ( 'NONE', *, *, #88, .T. ) ;
#160 = DATE_AND_TIME ( #110, #139 ) ;
#161 = CALENDAR_DATE ( 2021, 6, 12 ) ;
#162 = DATE_AND_TIME ( #161, #96 ) ;
#163 = CIRCLE ( 'NONE', #14, 50.00000000000000000 ) ;
#164 = APPROVAL ( #75, 'UNSPECIFIED' ) ;
#165 = APPROVAL_ROLE ( '' ) ;
#166 = ADVANCED_FACE ( 'NONE', ( #25, #69 ), #100, .T. ) ;
#167 = CC_DESIGN_APPROVAL ( #144, ( #101 ) ) ;
#168 = CARTESIAN_POINT ( 'NONE',  ( 0.0000000000000000000, 0.0000000000000000000, 0.0000000000000000000 ) ) ;
#169 = CC_DESIGN_DATE_AND_TIME_ASSIGNMENT ( #160, #46, ( #39 ) ) ;
ENDSEC;
END-ISO-10303-21;
