ISO-10303-21;
HEADER;
FILE_DESCRIPTION (( 'STEP AP203' ),
    '1' );
FILE_NAME ('684.step',
    '2021-12-06T13:00:17',
    ( '' ),
    ( '' ),
    'SwSTEP 2.0',
    'SolidWorks 2019',
    '' );
FILE_SCHEMA (( 'CONFIG_CONTROL_DESIGN' ));
ENDSEC;

DATA;
#1 = DESIGN_CONTEXT ( 'detailed design', #111, 'design' ) ;
#2 = APPROVAL_ROLE ( '' ) ;
#3 = DATE_AND_TIME ( #40, #55 ) ;
#4 = APPROVAL ( #137, 'UNSPECIFIED' ) ;
#5 = EDGE_LOOP ( 'NONE', ( #82 ) ) ;
#6 = CARTESIAN_POINT ( 'NONE',  ( -1.710332578358783302E-29, 5.999039130647430431E-31, -4.898587196589413026E-15 ) ) ;
#7 = DIRECTION ( 'NONE',  ( -3.491481338843133355E-15, 1.224646799147353207E-16, -1.000000000000000000 ) ) ;
#8 = EDGE_LOOP ( 'NONE', ( #162 ) ) ;
#9 = EDGE_CURVE ( 'NONE', #46, #46, #68, .T. ) ;
#10 = DATE_AND_TIME ( #77, #110 ) ;
#11 = ADVANCED_FACE ( 'NONE', ( #29, #69 ), #56, .T. ) ;
#12 = CARTESIAN_POINT ( 'NONE',  ( 1.047444401652938271E-14, -3.673940397442053952E-16, 2.999999999999995115 ) ) ;
#13 = SECURITY_CLASSIFICATION_LEVEL ( 'unclassified' ) ;
#14 = CC_DESIGN_PERSON_AND_ORGANIZATION_ASSIGNMENT ( #166, #102, ( #38 ) ) ;
#15 = APPROVAL_PERSON_ORGANIZATION ( #79, #4, #114 ) ;
#16 = FACE_OUTER_BOUND ( 'NONE', #148, .T. ) ;
#17 = CARTESIAN_POINT ( 'NONE',  ( 0.0000000000000000000, 0.0000000000000000000, 0.0000000000000000000 ) ) ;
#18 = ADVANCED_FACE ( 'NONE', ( #106, #160 ), #42, .F. ) ;
#19 = APPROVAL_DATE_TIME ( #35, #59 ) ;
#20 = CC_DESIGN_APPROVAL ( #117, ( #62 ) ) ;
#21 = DIRECTION ( 'NONE',  ( 4.202028969572151271E-31, 1.000000000000000000, 1.182766006347823109E-16 ) ) ;
#22 = ADVANCED_FACE ( 'NONE', ( #85, #16 ), #132, .T. ) ;
#23 =( NAMED_UNIT ( * ) SI_UNIT ( $, .STERADIAN. ) SOLID_ANGLE_UNIT ( ) );
#24 = AXIS2_PLACEMENT_3D ( 'NONE', #93, #7, #146 ) ;
#25 = PERSON_AND_ORGANIZATION_ROLE ( 'classification_officer' ) ;
#26 = COORDINATED_UNIVERSAL_TIME_OFFSET ( 1, 0, .AHEAD. ) ;
#27 = CIRCLE ( 'NONE', #164, 40.00000000000000000 ) ;
#28 = CALENDAR_DATE ( 2021, 6, 12 ) ;
#29 = FACE_BOUND ( 'NONE', #8, .T. ) ;
#30 = CARTESIAN_POINT ( 'NONE',  ( 0.0000000000000000000, 0.0000000000000000000, 0.0000000000000000000 ) ) ;
#31 = ORIENTED_EDGE ( 'NONE', *, *, #83, .T. ) ;
#32 = EDGE_LOOP ( 'NONE', ( #31 ) ) ;
#33 = PRODUCT_DEFINITION_FORMATION_WITH_SPECIFIED_SOURCE ( 'ANY', '', #97, .NOT_KNOWN. ) ;
#34 = CC_DESIGN_DATE_AND_TIME_ASSIGNMENT ( #37, #90, ( #38 ) ) ;
#35 = DATE_AND_TIME ( #99, #131 ) ;
#36 = DIRECTION ( 'NONE',  ( 4.237045877651918877E-31, 1.000000000000000000, 1.192622389734054877E-16 ) ) ;
#37 = DATE_AND_TIME ( #156, #48 ) ;
#38 = PRODUCT_DEFINITION ( 'UNKNOWN', '', #33, #1 ) ;
#39 = ADVANCED_BREP_SHAPE_REPRESENTATION ( '684', ( #75, #58 ), #128 ) ;
#40 = CALENDAR_DATE ( 2021, 6, 12 ) ;
#41 = EDGE_CURVE ( 'NONE', #61, #61, #27, .T. ) ;
#42 = CYLINDRICAL_SURFACE ( 'NONE', #24, 11.00000000000000000 ) ;
#43 = FACE_BOUND ( 'NONE', #134, .T. ) ;
#44 = CIRCLE ( 'NONE', #140, 40.00000000000000000 ) ;
#45 = COORDINATED_UNIVERSAL_TIME_OFFSET ( 1, 0, .AHEAD. ) ;
#46 = VERTEX_POINT ( 'NONE', #155 ) ;
#47 = CARTESIAN_POINT ( 'NONE',  ( 1.047444401652939533E-14, -3.673940397442058389E-16, 2.999999999999998668 ) ) ;
#48 = LOCAL_TIME ( 14, 0, 17.00000000000000000, #101 ) ;
#49 = LOCAL_TIME ( 14, 0, 17.00000000000000000, #105 ) ;
#50 = DIRECTION ( 'NONE',  ( 0.0000000000000000000, 0.0000000000000000000, 1.000000000000000000 ) ) ;
#51 = SHAPE_DEFINITION_REPRESENTATION ( #120, #39 ) ;
#52 = DATE_TIME_ROLE ( 'classification_date' ) ;
#53 = APPROVAL_DATE_TIME ( #67, #117 ) ;
#54 = AXIS2_PLACEMENT_3D ( 'NONE', #130, #87, #116 ) ;
#55 = LOCAL_TIME ( 14, 0, 17.00000000000000000, #26 ) ;
#56 = PLANE ( 'NONE',  #54 ) ;
#57 = DIRECTION ( 'NONE',  ( 4.275831445896958607E-31, 1.000000000000000000, 1.224646799147353207E-16 ) ) ;
#58 = AXIS2_PLACEMENT_3D ( 'NONE', #17, #50, #66 ) ;
#59 = APPROVAL ( #121, 'UNSPECIFIED' ) ;
#60 = ORIENTED_EDGE ( 'NONE', *, *, #9, .F. ) ;
#61 = VERTEX_POINT ( 'NONE', #138 ) ;
#62 = SECURITY_CLASSIFICATION ( '', '', #13 ) ;
#63 = PERSON_AND_ORGANIZATION_ROLE ( 'design_owner' ) ;
#64 = VERTEX_POINT ( 'NONE', #142 ) ;
#65 = CARTESIAN_POINT ( 'NONE',  ( 1.047444401652940007E-14, 11.00000000000000000, 3.000000000000000000 ) ) ;
#66 = DIRECTION ( 'NONE',  ( 1.000000000000000000, 0.0000000000000000000, 0.0000000000000000000 ) ) ;
#67 = DATE_AND_TIME ( #28, #49 ) ;
#68 = CIRCLE ( 'NONE', #94, 11.00000000000000000 ) ;
#69 = FACE_OUTER_BOUND ( 'NONE', #108, .T. ) ;
#70 = CC_DESIGN_PERSON_AND_ORGANIZATION_ASSIGNMENT ( #98, #63, ( #97 ) ) ;
#71 = DIRECTION ( 'NONE',  ( 4.275831445896958607E-31, 1.000000000000000000, 1.224646799147353207E-16 ) ) ;
#72 = ORIENTED_EDGE ( 'NONE', *, *, #41, .F. ) ;
#73 = DIRECTION ( 'NONE',  ( -3.491481338843133355E-15, 1.224646799147353207E-16, -1.000000000000000000 ) ) ;
#74 = ADVANCED_FACE ( 'NONE', ( #107, #43 ), #95, .T. ) ;
#75 = MANIFOLD_SOLID_BREP ( 'Corps-Déplacer/Copier1', #139 ) ;
#76 = ORIENTED_EDGE ( 'NONE', *, *, #83, .F. ) ;
#77 = CALENDAR_DATE ( 2021, 6, 12 ) ;
#78 = DIRECTION ( 'NONE',  ( -3.491481338843133355E-15, 1.224646799147353207E-16, -1.000000000000000000 ) ) ;
#79 = PERSON_AND_ORGANIZATION ( #104, #89 ) ;
#80 = DIRECTION ( 'NONE',  ( -3.491481338843133355E-15, 1.224646799147353207E-16, -1.000000000000000000 ) ) ;
#81 = PERSON_AND_ORGANIZATION ( #104, #89 ) ;
#82 = ORIENTED_EDGE ( 'NONE', *, *, #136, .F. ) ;
#83 = EDGE_CURVE ( 'NONE', #64, #64, #44, .T. ) ;
#84 = CC_DESIGN_APPROVAL ( #4, ( #38 ) ) ;
#85 = FACE_OUTER_BOUND ( 'NONE', #32, .T. ) ;
#86 = CARTESIAN_POINT ( 'NONE',  ( -6.199955596550590943E-30, 11.00000000000000000, -1.775737858763662409E-15 ) ) ;
#87 = DIRECTION ( 'NONE',  ( 3.491481338843133355E-15, -1.224646799147353207E-16, 1.000000000000000000 ) ) ;
#88 = ORIENTED_EDGE ( 'NONE', *, *, #9, .T. ) ;
#89 = ORGANIZATION ( 'UNSPECIFIED', 'UNSPECIFIED', '' ) ;
#90 = DATE_TIME_ROLE ( 'creation_date' ) ;
#91 = VERTEX_POINT ( 'NONE', #65 ) ;
#92 = PRODUCT_RELATED_PRODUCT_CATEGORY ( 'detail', '', ( #97 ) ) ;
#93 = CARTESIAN_POINT ( 'NONE',  ( 0.0000000000000000000, 0.0000000000000000000, 0.0000000000000000000 ) ) ;
#94 = AXIS2_PLACEMENT_3D ( 'NONE', #147, #163, #145 ) ;
#95 = PLANE ( 'NONE',  #115 ) ;
#96 = ORIENTED_EDGE ( 'NONE', *, *, #41, .T. ) ;
#97 = PRODUCT ( '684', '684', '', ( #165 ) ) ;
#98 = PERSON_AND_ORGANIZATION ( #104, #89 ) ;
#99 = CALENDAR_DATE ( 2021, 6, 12 ) ;
#100 =( NAMED_UNIT ( * ) PLANE_ANGLE_UNIT ( ) SI_UNIT ( $, .RADIAN. ) );
#101 = COORDINATED_UNIVERSAL_TIME_OFFSET ( 1, 0, .AHEAD. ) ;
#102 = PERSON_AND_ORGANIZATION_ROLE ( 'creator' ) ;
#103 = PERSON_AND_ORGANIZATION ( #104, #89 ) ;
#104 = PERSON ( 'UNSPECIFIED', 'UNSPECIFIED', 'UNSPECIFIED', ('UNSPECIFIED'), ('UNSPECIFIED'), ('UNSPECIFIED') ) ;
#105 = COORDINATED_UNIVERSAL_TIME_OFFSET ( 1, 0, .AHEAD. ) ;
#106 = FACE_OUTER_BOUND ( 'NONE', #161, .T. ) ;
#107 = FACE_OUTER_BOUND ( 'NONE', #118, .T. ) ;
#108 = EDGE_LOOP ( 'NONE', ( #76 ) ) ;
#109 = APPLICATION_PROTOCOL_DEFINITION ( 'international standard', 'config_control_design', 1994, #141 ) ;
#110 = LOCAL_TIME ( 14, 0, 17.00000000000000000, #124 ) ;
#111 = APPLICATION_CONTEXT ( 'configuration controlled 3d designs of mechanical parts and assemblies' ) ;
#112 = APPROVAL_DATE_TIME ( #10, #4 ) ;
#113 = PERSON_AND_ORGANIZATION ( #104, #89 ) ;
#114 = APPROVAL_ROLE ( '' ) ;
#115 = AXIS2_PLACEMENT_3D ( 'NONE', #86, #80, #167 ) ;
#116 = DIRECTION ( 'NONE',  ( -4.275831445896958607E-31, -1.000000000000000000, -1.224646799147353207E-16 ) ) ;
#117 = APPROVAL ( #159, 'UNSPECIFIED' ) ;
#118 = EDGE_LOOP ( 'NONE', ( #96 ) ) ;
#119 = AXIS2_PLACEMENT_3D ( 'NONE', #47, #78, #21 ) ;
#120 = PRODUCT_DEFINITION_SHAPE ( 'NONE', 'NONE',  #38 ) ;
#121 = APPROVAL_STATUS ( 'not_yet_approved' ) ;
#122 = PERSON_AND_ORGANIZATION ( #104, #89 ) ;
#123 = APPROVAL_PERSON_ORGANIZATION ( #103, #117, #2 ) ;
#124 = COORDINATED_UNIVERSAL_TIME_OFFSET ( 1, 0, .AHEAD. ) ;
#125 = APPLICATION_PROTOCOL_DEFINITION ( 'international standard', 'config_control_design', 1994, #111 ) ;
#126 = APPROVAL_PERSON_ORGANIZATION ( #113, #59, #157 ) ;
#127 = PERSON_AND_ORGANIZATION ( #104, #89 ) ;
#128 =( GEOMETRIC_REPRESENTATION_CONTEXT ( 3 ) GLOBAL_UNCERTAINTY_ASSIGNED_CONTEXT ( ( #158 ) ) GLOBAL_UNIT_ASSIGNED_CONTEXT ( ( #153, #100, #23 ) ) REPRESENTATION_CONTEXT ( 'NONE', 'WORKASPACE' ) );
#129 = CC_DESIGN_PERSON_AND_ORGANIZATION_ASSIGNMENT ( #127, #25, ( #62 ) ) ;
#130 = CARTESIAN_POINT ( 'NONE',  ( 1.047444401652939375E-14, 11.00000000000000000, 2.999999999999998224 ) ) ;
#131 = LOCAL_TIME ( 14, 0, 17.00000000000000000, #45 ) ;
#132 = CYLINDRICAL_SURFACE ( 'NONE', #135, 40.00000000000000000 ) ;
#133 = DIRECTION ( 'NONE',  ( -3.491481338843133355E-15, 1.224646799147353207E-16, -1.000000000000000000 ) ) ;
#134 = EDGE_LOOP ( 'NONE', ( #60 ) ) ;
#135 = AXIS2_PLACEMENT_3D ( 'NONE', #30, #133, #71 ) ;
#136 = EDGE_CURVE ( 'NONE', #91, #91, #150, .T. ) ;
#137 = APPROVAL_STATUS ( 'not_yet_approved' ) ;
#138 = CARTESIAN_POINT ( 'NONE',  ( 0.0000000000000000000, 40.00000000000000000, 0.0000000000000000000 ) ) ;
#139 = CLOSED_SHELL ( 'NONE', ( #74, #22, #11, #18 ) ) ;
#140 = AXIS2_PLACEMENT_3D ( 'NONE', #12, #152, #36 ) ;
#141 = APPLICATION_CONTEXT ( 'configuration controlled 3d designs of mechanical parts and assemblies' ) ;
#142 = CARTESIAN_POINT ( 'NONE',  ( 1.047444401652940007E-14, 40.00000000000000000, 3.000000000000000000 ) ) ;
#143 = PERSON_AND_ORGANIZATION_ROLE ( 'creator' ) ;
#144 = CC_DESIGN_APPROVAL ( #59, ( #33 ) ) ;
#145 = DIRECTION ( 'NONE',  ( 4.275831445896957731E-31, 1.000000000000000000, 1.224646799147353207E-16 ) ) ;
#146 = DIRECTION ( 'NONE',  ( 4.275831445896957731E-31, 1.000000000000000000, 1.224646799147353207E-16 ) ) ;
#147 = CARTESIAN_POINT ( 'NONE',  ( -4.703414590486653942E-30, 1.649735760928043369E-31, -1.347111479062088405E-15 ) ) ;
#148 = EDGE_LOOP ( 'NONE', ( #72 ) ) ;
#149 = CC_DESIGN_DATE_AND_TIME_ASSIGNMENT ( #3, #52, ( #62 ) ) ;
#150 = CIRCLE ( 'NONE', #119, 11.00000000000000000 ) ;
#151 = CC_DESIGN_SECURITY_CLASSIFICATION ( #62, ( #33 ) ) ;
#152 = DIRECTION ( 'NONE',  ( -3.491481338843133355E-15, 1.224646799147353207E-16, -1.000000000000000000 ) ) ;
#153 =( LENGTH_UNIT ( ) NAMED_UNIT ( * ) SI_UNIT ( .MILLI., .METRE. ) );
#154 = CC_DESIGN_PERSON_AND_ORGANIZATION_ASSIGNMENT ( #122, #143, ( #33 ) ) ;
#155 = CARTESIAN_POINT ( 'NONE',  ( 0.0000000000000000000, 11.00000000000000000, 0.0000000000000000000 ) ) ;
#156 = CALENDAR_DATE ( 2021, 6, 12 ) ;
#157 = APPROVAL_ROLE ( '' ) ;
#158 = UNCERTAINTY_MEASURE_WITH_UNIT (LENGTH_MEASURE( 1.000000000000000082E-05 ), #153, 'distance_accuracy_value', 'NONE');
#159 = APPROVAL_STATUS ( 'not_yet_approved' ) ;
#160 = FACE_OUTER_BOUND ( 'NONE', #5, .T. ) ;
#161 = EDGE_LOOP ( 'NONE', ( #88 ) ) ;
#162 = ORIENTED_EDGE ( 'NONE', *, *, #136, .T. ) ;
#163 = DIRECTION ( 'NONE',  ( -3.491481338843133355E-15, 1.224646799147353207E-16, -1.000000000000000000 ) ) ;
#164 = AXIS2_PLACEMENT_3D ( 'NONE', #6, #73, #57 ) ;
#165 = MECHANICAL_CONTEXT ( 'NONE', #141, 'mechanical' ) ;
#166 = PERSON_AND_ORGANIZATION ( #104, #89 ) ;
#167 = DIRECTION ( 'NONE',  ( 4.275831445896958607E-31, 1.000000000000000000, 1.224646799147353207E-16 ) ) ;
#168 = PERSON_AND_ORGANIZATION_ROLE ( 'design_supplier' ) ;
#169 = CC_DESIGN_PERSON_AND_ORGANIZATION_ASSIGNMENT ( #81, #168, ( #33 ) ) ;
ENDSEC;
END-ISO-10303-21;
